PrimaNota.ru - самый крупный в мире бесплатный архив песенных текстов, аккордов, табулатур и нот


Bloodlights - Addiction - таба, видео

Регистрация Запомнить меня
Войти через:  Facebook Google Twitter Vk Yandex Mail.ru

Bloodlights - Addiction - таба, видео

Печатать
Просмотров: 111
Intro:

E-----------------------------------------------------------------------|
B-----------------------------------------------------------------------|
G-----------------------------------------------------------------------|
D--6---------9-9-9--6-------6-4-4---------------------------------------|
A--4--4-4-4--7-7-7--4-4-4-4-4-2-2---------------------------------------|
E-----------------------------------------------------------------------|
      . . .           . . .

I'm not really sure how to write the squeaky parts, but if you listen to the song you'll 
what I mean. Play that four times, then follow it up with this:

E-----------------------------------------------------------------------|
B-----------------------------------------------------------------------|
G-----------------------------------------------------------------------|
D--4-6----4-6----4-6---------4-4-4-6------------------------------------|
A--2-4----2-2----2-4--6-6-6--2-2-2-4------------------------------------|
E---------------------4-4-4---------------------------------------------|

Play that however many times throughout the song. If you have this much you can pretty 
get the rest of the song on your own.

Bloodlights website:
http://www.bloodlights.com/site/main.html
Добавлено: 26.06.2012
Другие материалы по этой песне:
  • Аккорды и текст

Страница создана 26.06.2012
http://primanota.ru/bloodlights/addiction-chords.htm
Привет, Гость.
Предлагаем пройти революционный курс по гитаре.
Подарок от PrimaNota.Ru, забирай!