PrimaNota.ru - самый крупный в мире бесплатный архив песенных текстов, аккордов, табулатур и нот


Bloodhound Gang - The roof is one fire - аккорды и текст, видео

Регистрация Запомнить меня
Войти через:  Facebook Google Twitter Vk Yandex Mail.ru

Bloodhound Gang - The roof is one fire - аккорды и текст, видео

Печатать
Просмотров: 205
Уроки эстрадного вокала в Санкт-Петербурге
The roof is one fire
Bloodhound Gang
This song is really easy
PLAY ON ACOUSTIC FOR Intro< THEN VERSE IS ELECTRIC
Intro (8X)
    G                Em
[e---3--3-----3---3------0-----0---0--
B---0--0-----0---0------0-----0---0--
G---0--0-----0---0------0-----0---0--
D---0-----0----0---0--2----2----2---2
A---2-----2----2---2--2----2----2---2
E---3-----3----3---3--0----0----0---0]
Verse
   G5              E5
P.M .............  .............
[e-------------------------------
B-------------------------------
G-------------------------------
D---5-5-5-5-5-5-5--2-2-2-2-2-2-2
A---5-5-5-5-5-5-5--2-2-2-2-2-2-2
E---3-3-3-3-3-3-3--0-0-0-0-0-0-0]
Just play Intro, chorus, Intro, chorus..for the rest of the song
Its just G E G E G E G threoughout the song
Добавлено: 08.10.2013
Другие материалы по этой песне:
  • Аккорды и текст

Страница создана 08.10.2013
http://primanota.ru/bloodhound-gang/the-roof-is-one-fire-chords.htm
Привет, Гость.
Предлагаем пройти революционный курс по гитаре.
Подарок от PrimaNota.Ru, забирай!