PrimaNota.ru - самый крупный в мире бесплатный архив песенных текстов, аккордов, табулатур и нот


Bloodhound Gang - Mope - аккорды и текст, таба, бас-таба, видео

Регистрация Запомнить меня
Войти через:  Facebook Google Twitter Vk Yandex Mail.ru

Bloodhound Gang - Mope - аккорды и текст, таба, бас-таба, видео

Печатать
Просмотров: 513
Уроки эстрадного вокала в Санкт-Петербурге
Авторы: James Hetfield, Ferdi Bolland, Rob Bolland, Cliff Burton, Holly Johnson, Lars Ulrich, Peter Gill
Авторы музыки: Jimmy Pop, Mark O’Toole
Авторы текста: Jimmy Pop, Johann Hölzel
Mope
Bloodhound Gang
no guitar part during the verses, but if you want,
you could play quarter notes on the open low Eb string
during the chorus, do this four times:
[Eb:----------------------------
Bb:----------------------------
Gb:----7-6-5-4-----7-6-7--6----
Db:----x-x-x-x-----x-x-x--x----
Ab:----5-4-3-2-----5-4-5--4----
Eb:----------------------------]
during the relax, don't do it part, do this twice
[Eb:-7-------------------------
Bb:-8------------7------------
Gb:-7------------7------------
Db:-9------------7------------
Ab:-7------------7------------
Eb:---------------------------]
and the video game-sounding part at the end is:
[Eb:-9-----9------10-------10--------------9-10--
Bb:--9--------------10----------(x3)----9-------
Gb:----10---10---------11----11------10---------
Db:---------------------------------------------
Ab:---------------------------------------------
Eb:---------------------------------------------]
Добавлено: 18.12.2013
Другие материалы по этой песне:

Страница создана 24.03.2012
http://primanota.ru/bloodhound-gang/mope-chords.htm
Привет, Гость.
Предлагаем пройти революционный курс по гитаре.
Подарок от PrimaNota.Ru, забирай!