PrimaNota.ru - самый крупный в мире бесплатный архив песенных текстов, аккордов, табулатур и нот


Bloodhound Gang - I hope you die1 - таба, видео

Регистрация Запомнить меня
Войти через:  Facebook Google Twitter Vk Yandex Mail.ru

Bloodhound Gang - I hope you die1 - таба, видео

Печатать
Просмотров: 161
Уроки эстрадного вокала в Санкт-Петербурге


This is how you really play it


                Play a couple of times

------------------------------------------------
------------------------------------------------
------------------------------------------------
----3----3---------4-----4-3-----3-----3------6-
-1-1--1-1--1-1---------------4-4---4-4--4-4-----
---------------2-2---2-2-------------------4-4--


-------
-------
-------
-----6-       
-------
4-4----


   play before Jimmy sings
-------------------
-------------------
-------------------
--------------1-3-4
--------1-3-4------
-1-1-3-4-----------


   play while Jimmy sings
---------
---------
-3---6---
-3-4-6-6-
-4-4-4-6-
---2---4-


.........when you let go of your pinky push down 
with your index (this takes practice)

--------------------
--------6-6-6-7-6-4-
--------6-6-6-6-6-6-
3-4-----6-6-6-6-6-6-
3-4-----4-4-4-4-4-4-
1-2-----------------


Добавлено: 26.02.2014
Другие материалы по этой песне:
  • Аккорды и текст

Страница создана 26.02.2014
http://primanota.ru/bloodhound-gang/i-hope-you-die1-chords.htm
Привет, Гость.
Предлагаем пройти революционный курс по гитаре.
Подарок от PrimaNota.Ru, забирай!