PrimaNota.ru - самый крупный в мире бесплатный архив песенных текстов, аккордов, табулатур и нот


Bloodduster - Northcote - текст песни, таба, видео

Регистрация Запомнить меня
Войти через:  Facebook Google Twitter Vk Yandex Mail.ru

Bloodduster - Northcote - текст песни, таба, видео

Печатать
Просмотров: 132
Band:  bloodduster
Album: yeest
Song:  northcote

Copyright (c)  Relapse Records 1998
Version 1.0 - April 21, 2002

Transcribed By: king of killing
Email:          scare138@earthlink.net


.  - palm mute           /  - slide up to
\  - slide down to       ~  - vibrato
h  - hammer on           b  - Bend
p  - pull off            Suffixes for bend
t  - tap                 f  - full bend    h - half bend
ph - pinched harmonic    q  - quarter bend t - tap bend
*  - see comment         ^  - Hold bend    r release bend
x  - Stuccatto           ~  - vibrato bend
,  - slight palm mute    () - ghost note, sustained note
"  - tremolo note        <> - Trill

Tunning: B or use a 7 string

|-------------------------------------------------------------------|
|-------------------------------------------------------------------|
|-------------------------------------------------------------------|
|-------------------------------------------------------------------|
|-7-6-5-------------------------------------------------------------|
|--------0-7-6-5--030-3-4-5--0-3-4-5--3-4---------------------------|

|-------------------------------------------------------------------|
|-------------------------------------------------------------------|
|-------------------------------------------------------------------|
|-------------------------------------------------------------------|
|-7-6-5----------------------2-3-4-5-6-7----------------------------|
|--------0-7-6-5--030-3-4-5--0-1-2-3-4-5----------------------------|

|-------------------------------------------------------------------|
|-------------------------------------------------------------------|
|-------------------------------------------------------------------|
|-------------------------------------------------------------------|
|-7-6-5-------------------------------------------------------------|
|--------0-7-6-5--030--3-4-5--0305030505----------------------------|


|-------------------------------------------------------------------|
|-------------------------------------------------------------------|
|-------------------------------------------------------------------|
|-------------------------------------------------------------------|
|-7-6-5------------------2-2-2-2-2-----------------22-22-22-22------|
|--------0-7-6-5--0-3h5--0-0-0-0-0-(2nd time play)-00-00-00-00------|

|-------------------------------------------------------------------|
|-------------------------------------------------------------------|
|-------------------------------------------------------------------|
|-------------------------------------------------------------------|
|-2--5--7--8--9--8--7/8\7-5/7\5--2--5--7--8----5--------8-----------|
|-0--3--5--6--7--6--5/6\5-3/5\3--0--3--5--6-/7---7--/10-------------|

|-------------------------------------------------------------------|
|-------------------------------------------------------------------|
|-------------------------------------------------------------------|
|-------------------------------------------------------------------|
|-3-----------------------------------------------------------------|
|---4-3--1-3-1--0--1-3-4-3-1----------------------------------------|


|-------------------------------------------------------------------|
|-------------------------------------------------------------------|
|-------------------------------------------------------------------|
|-------------------------------------------------------------------|
|----2------2------2--765---------------2------2------2--7-6-5------|
|000-0--000-0--000-0-----0-3h5-5----000-0--000-0--000-0--------0-3h5|

|-------------------------------------------------------------------|
|-------------------------------------------------------------------|
|-------------------------------------------------------------------|
|-------------------------------------------------------------------|
|-7-6-5-----------------------------------------------------5-4-3-2-|
|-------0-7-6-0-3h5-5-(sample of guy sayin shut the fuck up)3-2-1-0-|
Добавлено: 05.12.2015
Вам также может быть интересно:
Другие материалы по этой песне:
  • Аккорды и текст

Страница создана 04.05.2012
http://primanota.ru/bloodduster/northcote-chords.htm
Привет, Гость.
Предлагаем пройти революционный курс по гитаре.
Подарок от PrimaNota.Ru, забирай!