PrimaNota.ru - самый крупный в мире бесплатный архив песенных текстов, аккордов, табулатур и нот


Bloodbound - Nosferatu - текст песни, таба, видео

Регистрация Запомнить меня
Войти через:  Facebook Google Twitter Vk Yandex Mail.ru

Bloodbound - Nosferatu - текст песни, таба, видео

Печатать
Просмотров: 90
Новый альбом группы 'Черный Кузнец' по культовому сериалу 'Сверхъестественное'!
E|-3--5--6--5--3--1--3--5--6--5--3--1|-------------------------------------------|---------------------------|
B|-----------------------------------|--3--4--6--4--3-----3--3--4--6--4--3-----3-|---------------------------|
G|-----------------------------------|-----------------3--------------------3----|-2--3--5--7--5--3--2--2--3-|
D|-----------------------------------|-------------------------------------------|---------------------------|
A|-----------------------------------|-------------------------------------------|---------------------------|
E|-----------------------------------|-------------------------------------------|---------------------------|

E|----------------|
B|----------------|
G|-5--3--2-----2--|
D|----------3-----|
A|----------------|
E|----------------|
Добавлено: 16.01.2018
Вам также может быть интересно:
Другие материалы по этой песне:
  • Аккорды и текст

Страница создана 19.09.2013
http://primanota.ru/bloodbound/nosferatu-chords.htm
Привет, Гость.
Предлагаем пройти революционный курс по гитаре.
Подарок от PrimaNota.Ru, забирай!