PrimaNota.ru - самый крупный в мире бесплатный архив песенных текстов, аккордов, табулатур и нот


Blood Stain Child - Hyper Sonic - текст песни, таба, видео

Регистрация Запомнить меня
Войти через:  Facebook Google Twitter Vk Yandex Mail.ru

Blood Stain Child - Hyper Sonic - текст песни, таба, видео

Печатать
Просмотров: 174
-------------------------------------------------------------------------------
                             Hyper Sonic - Blood Stain Child
-------------------------------------------------------------------------------
Tabbed by:guitarist_2006
Email:metal_20066@yahoo.com

                     Im not sure how this band tunes the guitars
                            so i tuned my regular tuning
Tuning:C G C F A D
{0:29} ..       ...     .     ..       ...    .    ..   .   ...
e|-----------------------------------------------------------------------------------------------|X2
B|-----------------------------------------------------------------------------------------------|
G|-----------------------------------------------------------------------------------------------|
D|-----------------------------------------------------------------------------------------------|
A|--8-----7---8-----1-3----8----7---8-----1-3----8----7---8-----1-3-----333333333--555555555-----|
E|-----00---0---000-----0-----00---0---000----0----00---0---000---------333333333--555555555-----|

{0:47}
e|------------------------------------------------------------|X2
B|------------------------------------------------------------|
G|-7--------9-------10--------12-------1010---99--------------|
D|---{X15}----{X15}-----{X15}-----{X10}-----------------------|
A|-5--------7--------8--------10--------8-8---77--------------|
E|------------------------------------------------------------|

{1:04}  ..       ...     .     ..       ...    .    ..   .   ...
e|---------------------------------------------------------------------------------------------|
B|---------------------------------------------------------------------------------------------|
G|---------------------------------------------------------------------------------------------|
D|---------------------------------------------------------------------------------------------|
A|----8----7---8-----1-3----8----7---8-----1-3----8----7---8-----1-3-----333333333--555555555--|
E|------00---0---000-----0-----00---0---000----0----00---0---000---------333333333--555555555--|

{1:12}
e|------------------------------------------------------------|X2
B|------------------------------------------------------------|
G|-7--------9-------10--------12-------1010---99--------------|
D|---{X15}----{X15}-----{X15}-----{X10}-----------------------|
A|-5--------7--------8--------10--------8-8---77--------------|
E|------------------------------------------------------------|

{1:30}
e|--------------------------------------------------------------------------------------------------|
B|--------------------------------------------------------------------------------------------------|
G|--------------------------------------------------------------------------------------------------|
D|--3--3--/5----------------------------------------------------------------------------------------|
A|--3--3--/5--555555555---111111111---33333333333333333---555555555---111111111---333333333333333---|
E|--3--3--/5----------------------------------------------------------------------------------------|
   .   .      .      .      .       .     .      .
e|-------------------------------------------------------|
B|-------------------------------------------------------|
G|-------------------------------------------------------|
D|-------------------------------------------------------|
A|---8---7H8-------8---7H8--------8---7H8------8---7H8---|
E|-0---0------0-8----0------0-10----0-----0-10---0-------|

e|----------------------------------------------------------------------------------------|
B|----------------------------------------------------------------------------------------|
G|----------------------------------------------------------------------------------------|
D|----------------------------------------------------------------------------------------|
A|--555555555---111111111---33333333333333333---555555555---111111111---333333333333333---|
E|----------------------------------------------------------------------------------------|
   .   .      .      .      .       .     .      .
e|-------------------------------------------------------|
B|-------------------------------------------------------|
G|-------------------------------------------------------|
D|-------------------------------------------------------|
A|---8---7H8-------8---7H8--------8---7H8------8---7H8---|
E|-0---0------0-8----0------0-10----0-----0-10---0-------|

{2:02}  . .
e|---------------------------------------------------------------|X2
B|---------------------------------------------------------------|
G|--------------7--------9-------10--------12-------1010---99----|
D|------0-0-------{X15}----{X15}-----{X15}-----{X10}-------------|
A|------0-0-----5--------7--------8--------10--------8-8---77----|
E|------0-0------------------------------------------------------|

{2:24}
e|--------------------------------------------------------------------------------------------------|
B|--------------------------------------------------------------------------------------------------|
G|--------------------------------------------------------------------------------------------------|
D|--3--3--/5----------------------------------------------------------------------------------------|
A|--3--3--/5--555555555---111111111---33333333333333333---555555555---111111111---333333333333333---|
E|--3--3--/5----------------------------------------------------------------------------------------|

   .   .      .      .      .       .     .      .
e|-------------------------------------------------------|
B|-------------------------------------------------------|
G|-------------------------------------------------------|
D|-------------------------------------------------------|
A|---8---7H8-------8---7H8--------8---7H8------8---7H8---|
E|-0---0------0-8----0------0-10----0-----0-10---0-------|

e|----------------------------------------------------------------------------------------|
B|----------------------------------------------------------------------------------------|
G|----------------------------------------------------------------------------------------|
D|----------------------------------------------------------------------------------------|
A|--555555555---111111111---33333333333333333---555555555---111111111---333333333333333---|
E|----------------------------------------------------------------------------------------|

   .   .      .      .      .       .     .      .       ..
e|------------------------------------------------------------|
B|------------------------------------------------------------|
G|---8---7H8-------8---7H8--------8---7H8------8---7H8--------|
D|--------------8-------------10------------10-----------00---|
A|-------------------------------------------------------00---|
E|-0---0------0------0------0-------0-----0------0-------00---|

www.bloodstainchild.com/

| .  Palm Mute
| /  slide up
| \  slide down
| h  hammer-on
| p  pull-off
| ~  vibrato
| +  harmonic
| x  Mute note
===============================================================================
Добавлено: 23.06.2012
Другие материалы по этой песне:
  • Аккорды и текст

Страница создана 23.06.2012
http://primanota.ru/blood-stain-child/hyper-sonic-chords.htm
Привет, Гость.
Предлагаем пройти революционный курс по гитаре.
Подарок от PrimaNota.Ru, забирай!