PrimaNota.ru - самый крупный в мире бесплатный архив песенных текстов, аккордов, табулатур и нот


Blood Stain Child - Final Sky - таба, видео

Регистрация Запомнить меня
Войти через:  Facebook Google Twitter Vk Yandex Mail.ru

Blood Stain Child - Final Sky - таба, видео

Печатать
Просмотров: 199
-------------------------------------------------------------------------------
                             Final Sky - Blood Stain Child
-------------------------------------------------------------------------------
Tabbed by:Guitarist_2006
Email:metal_20066@yahoo.com

Tuning:Drop C
GTR.1   (0:00 - 0:39)
e|---------------------------------------------------------------------------|X4
B|---------------------------------------------------------------------------|
G|---------------------------------------------------------------------------|
D|--8-08-08--7-07-07---3-03-03-03-0303-----8-08-08-7-07-07--8-08-08--7-07-077|
A|---------------------------------------------------------------------------|
E|---------------------------------------------------------------------------|

(0:36 - 0:59)
e|----------------------------|
B|----------------------------|
G|----------------------------|
D|--5--------------12/--------|
A|--5-let-ring-----12/--------|
E|--5--------------12/--------|

e|---------------------------------------------------------|
B|---------------------------------------------------------|
G|---------------------------------------------------------|
D|--5-5-5---5-55---5-5-5---5-55---5-5-5---5-55-------------|
A|--5-5-5---5-55---5-5-5---5-55---5-5-5---5-55-------------|
E|--5-5-5---5-55---5-5-5---5-55---5-5-5---5-55-------------|-|
PM    .              .              .                        |
                                                             |X2
e|---------------------------------------------------|-------|
B|---------------------------------------------------|
G|---------------------------------------------------|
D|-1-1-1-1--1---11---11-----3-3-3--333---------------|
A|-1-1-1-1--1---11---11-----3-3-3--333---------------|
E|-1-1-1-1--1---11---11-----3-3-3--333---------------|
PM   .   .                    .
(0:59 - 1:09)
e|---------|----------|--------------|X2
B|---------|----------|--------------|
G|---------|----------|--------------|
D|--5------|----1-----|---3----------|
A|--5-X20--|----1-X8--|---3-X8-------|
E|--5------|----1-----|---3----------|

(1:09 - 1:26)
e|---------------------------------------------------------|
B|---------------------------------------------------------|
G|---------------------------------------------------------|
D|--5-5-5---5-55---5-5-5---5-55---5-5-5---5-55-------------|
A|--5-5-5---5-55---5-5-5---5-55---5-5-5---5-55-------------|
E|--5-5-5---5-55---5-5-5---5-55---5-5-5---5-55-------------|-|
PM    .              .              .                        |
                                                             |X2
e|---------------------------------------------------|-------|
B|---------------------------------------------------|
G|---------------------------------------------------|
D|-1-1-1-1--1---11---11-----3-3-3--333---------------|
A|-1-1-1-1--1---11---11-----3-3-3--333---------------|
E|-1-1-1-1--1---11---11-----3-3-3--333---------------|
PM   .   .                    .

(1:26 -1:45)
e|-------------------------------------------------------|
B|-------------------------------------------------------|
G|-------------------------------------------------------|
D|--1-1--1-11---1--1---1-11------3--3---3-33-------------|
A|--1-1--1-11---1--1---1-11------3--3---3-33-------------|
E|--1-1--1-11---1--1---1-11------3--3---3-33-------------|
PM    .            .                .

e|-------------------------------------------|
B|-------------------------------------------|
G|-------------------------------------------|
D|--5-5--5-55--5--5--5-55--5-5-5-55-55-------|
A|--5-5--5-55--5--5--5-55--5-5-5-55-55-------|
E|--5-5--5-55--5--5--5-55--5-5-5-55-55-------|
PM    .           .          .

         IM NOT SURE 

| /  slide up
| \  slide down
| h  hammer-on
| p  pull-off
| ~  vibrato
| +  harmonic
| x  Mute note
===============================================================================
Добавлено: 22.07.2012
Другие материалы по этой песне:

Страница создана 31.03.2012
http://primanota.ru/blood-stain-child/final-sky-chords.htm
Привет, Гость.
Предлагаем пройти революционный курс по гитаре.
Подарок от PrimaNota.Ru, забирай!