PrimaNota.ru - самый крупный в мире бесплатный архив песенных текстов, аккордов, табулатур и нот


Blood Red Throne - Mephitication - таба, видео

Регистрация Запомнить меня
Войти через:  Facebook Google Twitter Vk Yandex Mail.ru

Blood Red Throne - Mephitication - таба, видео

Печатать
Просмотров: 167
Уроки эстрадного вокала в Санкт-Петербурге
-------------------------------------------------------------------------------
                             MEPHITICATION - BLOOD RED THRONE
-------------------------------------------------------------------------------
Tabbed by: Casey
Email: gothman92@yahoo.com

Tuning: Drop B

LEGEND:
T = tremolo pick
P = palm mute
b = bend
h = hammer on
/ = slide


|---------------------------------------------------------------------------|
|---------------------------------------------------------------------------|
|---------------------------------------------------------------------------|
|-------------------------------8-------------------------------------------|
|-7-0-7-0-7-0-7-8-7-0-7-0-7-0-7---------------------------------------------|
|-----------------------------------(x4)------------------------------------|
  T T T T T T T T T T T T T T T T

|---------------------------------------------------------------------------|
|---------------------------------------------------------------------------|
|----3-2--4-3--5-4----------------------------------------------------------|
|----3-2--4-3--5-4----------------------------------------------------------|
|-0--1-0--2-1--3-2----------------------------------------------------------|
|-0----------------0-0-0---(x4)---------------------------------------------|
                   P P P

|------------------------------------------------------------------------------|
|------------------------------------------------------------------------------|
|------------------------------------------------------------------------------|
|-------------------------------8----------------------------------------------|
|-7-0-7-0-7-0-7-8-7-0-7-0-7-0-7------------------------------------------------|
|-----------------------------------(x2)---------------------------------------|
  T T T T T T T T T T T T T T T T


|------------------------------------------------------------------------------|
|------------------------------------------------------------------------------|
|----3-2--4-3--5-4-------------------------------------------------------------|
|----3-2--4-3--5-4--------------2-1--------------------------------------------|
|-0--1-0--2-1--3-2--------------2-1--------------------------------------------|
|-0----------------0-0-0---(x4)--2-1-0000--------------------------------------|
                   P P P             PPPP

|------------------------------------------------------------------------------|
|------------------------------------------------------------------------------|
|------------------------------------------------------------------------------|
|------------------------------------------------------------------------------|
|----------------------9-5-5---------------------------------------------------|
|-0-5-6-8-9-5--0-5-6-8-9-5-5---0-5-6-8-9-5--0-5-6-8-6-5--(x 2)-----------------|
  T T T T T T  T T T T         T T T T T T  T T T b b b

|------------------------------------------------------------------------------|
|------------------------------------------------------------------------------|
|------------------------------------------------------------------------------|
|------------------------------------------------------------------------------|
|------------------------------------------------------------------------------|
|-0-0-6-0-0-9-0-0-12-0-0-9-0-0-6h9--(x4)---------------------------------------|
  P P   P P   P P    P P   P P

|------------------------------------------------------------------------------|
|------------------------------------------------------------------------------|
|------------------------------------------------------------------------------|
|-------------------------------------------------6/9--9-9--9/12--12-12--------|
|-------------------------------------------------6/9--9-9--9/12--12-12--------|
|-00000-0-6-0-6-0-00000-0-9-0-9-0-00000-0-6-0-6-0-6/9--9-9--9/12--12-12-(x4)---|
  PPPPP P   P   P PPPPP P   P   P PPPPP P   P   P


|------------------------------------------------------------------------------|
|------------------------------------------------------------------------------|
|----3-2--4-3--5-4-------------------------------------------------------------|
|----3-2--4-3--5-4-------------------------------------------------------------|
|-0--1-0--2-1--3-2-------------------------------------------------------------|
|-0----------------0-0-0---(x4)------------------------------------------------|
                   P P P             PPPP

|------------------------------------------------------------------------------|
|------------------------------------------------------------------------------|
|------------------------------------------------------------------------------|
|------------------------------------------------------------------------------|
|----------------------9-5-5---------------------------------------------------|
|-0-5-6-8-9-5--0-5-6-8-9-5-5---0-5-6-8-9-5--0-5-6-8-6-5--(x 2)-----------------|
  T T T T T T  T T T T         T T T T T T  T T T b b b

|------------------------------------------------------------------------------|
|------------------------------------------------------------------------------|
|------------------------------------------------------------------------------|
|------------------------------------------------------------------------------|
|------------------------------------------------------------------------------|
|-0-0-6-0-0-9-0-0-12-0-0-9-0-0-6h9--(x4)---------------------------------------|
  P P   P P   P P    P P   P P

|------------------------------------------------------------------------------|
|------------------------------------------------------------------------------|
|------------------------------------------------------------------------------|
|-------------------------------------------------6/9--9-9--9/12--12-12--------|
|-------------------------------------------------6/9--9-9--9/12--12-12--------|
|-00000-0-6-0-6-0-00000-0-9-0-9-0-00000-0-6-0-6-0-6/9--9-9--9/12--12-12-(x4)---|
  PPPPP P   P   P PPPPP P   P   P PPPPP P   P   P

|------------------------------------------------------------------------------|
|------------------------------------------------------------------------------|
|------------------------------------------------------------------------------|
|------------------------------------------------------------------------------|
|-0------6------1--------------------------------------------------------------|
|-0--00--6--00--1-(x7)---------------------------------------------------------|
     PP     PP

|------------------------------------------------------------------------------|
|------------------------------------------------------------------------------|
|------3----3----------3------3------------------------------------------------|
|------3----3----------3------3------------------------------------------------|
|-2----1----1--2-------1------1-2----------------------------------------------|
|-2-22---22----2--2222---2222---2-(x2)-----------------------------------------|
    PP   PP       PPPP   PPPP

|------------------------------------------------------------------------------|
|------------------------------------------------------------------------------|
|------------------------------------------------------------------------------|
|------------------------------------------------------------------------------|
|-0------6------1--------------------------------------------------------------|
|-0--00--6--00--1-(x3)---------------------------------------------------------|
     PP     PP

|------------------------------------------------------------------------------|
|------------------------------------------------------------------------------|
|------3----3----------3------3------------------------------------------------|
|------3----3----------3------3------------------------------------------------|
|-2----1----1--2-------1------1-2----------------------------------------------|
|-2-22---22----2--2222---2222---2-(x2)-----------------------------------------|
    PP   PP       PPPP   PPPP

|---------------------------------------------------------------------------|
|---------------------------------------------------------------------------|
|----------------------------------------9----------------------------------|
|-------------------------------8--------9----------------------------------|
|-7-0-7-0-7-0-7-8-7-0-7-0-7-0-7----------7----------------------------------|
|-----------------------------------(x4)------------------------------------|
  T T T T T T T T T T T T T T T T

|---------------------------------------------------------------------------|
|---------------------------------------------------------------------------|
|---------------------------------------------------------------------------|
|---------------------------------------------------------------------------|
|-2-2-2-3-3-3-5-5-5-6-6-6-9-9-5-5-2-2-2-3-3-3-5-5-5-6-----------------------|
|-2-2-2-3-3-3-5-5-5-6-6-6-9-9-5-5-2-2-2-3-3-3-5-5-5-6-6p0-000-000-----------|
                                                          PPP PPP


that's it, this sounds right to me. brutal song, by an equally brutal band. enjoy!
Добавлено: 01.03.2012
Вам также может быть интересно:
Другие материалы по этой песне:
  • Аккорды и текст

Страница создана 01.03.2012
http://primanota.ru/blood-red-throne/mephitication-chords.htm
Привет, Гость.
Предлагаем пройти революционный курс по гитаре.
Подарок от PrimaNota.Ru, забирай!