PrimaNota.ru - самый крупный в мире бесплатный архив песенных текстов, аккордов, табулатур и нот


Blood Red Throne - Come Death - таба, видео

Регистрация Запомнить меня
Войти через:  Facebook Google Twitter Vk Yandex Mail.ru

Blood Red Throne - Come Death - таба, видео

Печатать
Просмотров: 146
Tuning: D

. = Palm Mute
/ = Slide Up/Down To

Gtr. 1/2 (x4)

|-----------------------------------------------------|---------------------------------|
|-----------------------------------------------------|---------------------------------|
|-----------------------------------------------------|---------------------------------|
|-----------------------------------------------------|--------------------555---555----|
|-----------------------------------------------------|-5555------------------444---444-|
|-000-000-0-0-000---000-000-0-0-000---000-000-0-0-000-|-----7777-6666-3333--------------|
  ... ... . . ...   ... ... . . ...   ... ... . . ...   

Gtr. 1

|------------------------------|------------------------------|
|------------------------------|------------------------------|
|------------------------------|------------------------------|
|-6------5------6------5-------|-6------5------6------5-------|
|-4------3------4------3-------|-4------3------4------3-------|
|--0-0-0--0-0-0--0-0-0--0-000--|--0-0-0--0-0-0--0-0-0--0-0-0--|
   . . .  . . .  . . .  . ...     . . .  . . .  . . .  . . .

Gtr. 2

|------------------------------|------------------------------|
|------------------------------|------------------------------|
|------------------------------|------------------------------|
|-6----------------------------|------------------------------|
|-4----------------------------|------------------------------|
|------------------------------|------------------------------|

Gtr. 1 and 2 (x2)

|------------------------------|------------------------------|
|------------------------------|------------------------------|
|------------------------------|------------------------------|
|-6------5------6------5-------|-6------5------6------5-------|
|-4------3------4------3-------|-4------3------4------3-------|
|--0-0-0--0-0-0--0-0-0--0-000--|--0-0-0--0-0-0--0-0-0--0-000--|
   . . .  . . .  . . .  . ...     . . .  . . .  . . .  . ...

Gtr. 1 and 2

|----------------------------------------------|----------------|
|----------------------------------------------|----------------|
|----------------------------------------------|-------------7--|
|----------------------------------------------|--7-----7----7--|
|-5-----------------------------6--------------|--5-----5----5--|
|-3-33333333333-555555-66666666-4-44444444444--|---0-0---0-0----|
    ........... ...... ........   ...........      . .   . .

Gtr. 1 and 2

|----------------------------------------------|-------------------|
|----------------------------------------------|-------------------|
|----------------------------------------------|-------------------|
|----------------------------------------------|-------------------|
|-5-----------------------------6--------------|-------------------|
|-3-33333333333-555555-66666666-4-44444444444--|--766-766-766-766--|
    ........... ...... ........   ...........     ... ... ... ...

Gtr. 1 and 2

|----------------------------------------------|----------------|
|----------------------------------------------|----------------|
|----------------------------------------------|-------------7--|
|----------------------------------------------|--7-----7----7--|
|-5-----------------------------6--------------|--5-----5----5--|
|-3-33333333333-555555-66666666-4-44444444444--|---0-0---0-0----|
    ........... ...... ........   ...........      . .   . .

Gtr. 1 and 2

|----------------------------------------------|----------------|
|----------------------------------------------|----------------|
|----------------------------------------------|----------------|
|----------------------------------------------|----------------|
|-5-----------------------------6--------------|--9/7-9--8/6-8--|
|-3-33333333333-555555-66666666-4-44444444444--|--7/5-7--6/4-6--|
    ........... ...... ........   ...........

Gtr. 1 and 2

|------------------------------|------------------------------|
|------------------------------|------------------------------|
|------------------------------|------------------------------|
|-6------5------6------5-------|-6------5------6------5-------|
|-4------3------4------3-------|-4------3------4------3-------|
|--0-0-0--0-0-0--0-0-0--0-000--|--0-0-0--0-0-0--0-0-0--0-000--|
   . . .  . . .  . . .  . ...     . . .  . . .  . . .  . ...

Gtr. 1 and 2

|----------------------------------------------|----------------|
|----------------------------------------------|----------------|
|----------------------------------------------|-------------7--|
|----------------------------------------------|--7-----7----7--|
|-5-----------------------------6--------------|--5-----5----5--|
|-3-33333333333-555555-66666666-4-44444444444--|---0-0---0-0----|
    ........... ...... ........   ...........      . .   . .

Gtr. 1 and 2

|----------------------------------------------|-------------------|
|----------------------------------------------|-------------------|
|----------------------------------------------|-------------------|
|----------------------------------------------|-------------------|
|-5-----------------------------6--------------|-------------------|
|-3-33333333333-555555-66666666-4-44444444444--|--766-766-766-766--|
    ........... ...... ........   ...........     ... ... ... ...

Gtr. 1 and 2

|----------------------------------------------|----------------|
|----------------------------------------------|----------------|
|----------------------------------------------|-------------7--|
|----------------------------------------------|--7-----7----7--|
|-5-----------------------------6--------------|--5-----5----5--|
|-3-33333333333-555555-66666666-4-44444444444--|---0-0---0-0----|
    ........... ...... ........   ...........      . .   . .

Gtr. 1 and 2

|----------------------------------------------|----------------|
|----------------------------------------------|----------------|
|----------------------------------------------|----------------|
|----------------------------------------------|----------------|
|-5-----------------------------6--------------|--9/7-9--8/6-8--|
|-3-33333333333-555555-66666666-4-44444444444--|--7/5-7--6/4-6--|
    ........... ...... ........   ...........

Gtr. 1 and 2 (x2)

|------------------------------|------------------------------|
|------------------------------|------------------------------|
|------------------------------|------------------------------|
|-6------5------6------5-------|-6------5------6------5-------|
|-4------3------4------3-------|-4------3------4------3-------|
|--0-0-0--0-0-0--0-0-0--0-000--|--0-0-0--0-0-0--0-0-0--0-000--|
   . . .  . . .  . . .  . ...     . . .  . . .  . . .  . ...

Gtr. 1 and 2

|------------------|
|------------------|
|----------------3-|
|-6---5----3-----3-|
|-4---3----1-2-2-1-|
|--000-0-----0-0---|
   ... .     . .

Gtr. 1 (x2)

|---------------------------------|---------------------------------|
|---------------------------------|---------------------------------|
|-------------------------------1-|-------------------------------1-|
|---------------2/3--2/3--1-----1-|---------------2/3--2/3--1-----1-|
|---------------0/1--0/1--3-2-2-3-|---------------0/1--0/1--3-2-2-3-|
|-0000-0-0-0-0--------------0-0---|-0000-0-0-0-0--------------0-0---|
  .... . . . .              . .     .... . . . .              . .

Gtr. 2 (x2)

|---------------------------------|---------------------------------|
|---------------------------------|---------------------------------|
|---------------------------------|-------------------------------1-|
|---------------------------------|-------------------------1-----1-|
|---------------------------------|-------------------------3-2-2-3-|
|---------------------------------|---------------------------0-0---|
                                                              . .

Gtr. 1 and 2

|---------------------------------|---------------------------------|
|---------------------------------|---------------------------------|
|-------------------------------1-|-------------------------------1-|
|---------------2/3--2/3--1-----1-|---------------2/3--2/3--1-----1-|
|---------------0/1--0/1--3-2-2-3-|---------------0/1--0/1--3-2-2-3-|
|-0000-0-0-0-0--------------0-0---|-0000-0-0-0-0--------------0-0---|
  .... . . . .              . .     .... . . . .              . .

|---------------------------------|---------------------------------|
|---------------------------------|---------------------------------|
|-------------------------------1-|---------------------------------|
|---------------2/3--2/3--1-----1-|---------------2/3--2/3--2-----3-|
|---------------0/1--0/1--3-2-2-3-|---------------0/1--0/1--0--4--1-|
|-0000-0-0-0-0--------------0-0---|-0000-0-0-0-0---------------2----|
  .... . . . .              . .     .... . . . .

Gtr. 1 and 2

|----------------------------------------------------------------------|
|----------------------------------------------------------------------|
|----------------------------------------------------------------------|
|----------------------------------------------------------------------|
|-----------------------------------5/4-5/4-----------5/4-5/4----------|
|-000-000-0-0-000--000-000-0-0-000--3/2-3/2--0-0-000--3/2-3/2--0-0-000-|
  ... ... . . ...  ... ... . . ...           . . ...           . . ...

Gtr. 1 and 2


|--------------------------------|--------------------------------|
|--------------------------------|--------------------------------|
|--------------------------------|--------------------------------|
|-1-----1---------------2/3--2/3-|-1-----1---------------2/3--2/3-|
|-3-2-2-3---------------0/1--0/1-|-3-2-2-3---------------0/1--0/1-|
|---0-0----0000-0-0-0-0----------|---0-0----0000-0-0-0-0----------|
    . .    .... . . . .              . .    .... . . . .

|--------------------------------|--------------------------------|---------|
|--------------------------------|--------------------------------|---------|
|--------------------------------|--------------------------------|---------|
|-1-----1---------------2/3--2/3-|-1-----1---------------2/3--2/3-|-2-----3-|
|-3-2-2-3---------------0/1--0/1-|-3-2-2-3---------------0/1--0/1-|-0--4--1-|
|---0-0----0000-0-0-0-0----------|---0-0----0000-0-0-0-0----------|----2----|
    . .    .... . . . .              . .    .... . . . .

Gtr. 1 and 2 (x2)

|----------------------------------------------------------------------|
|----------------------------------------------------------------------|
|----------------------------------------------------------------------|
|----------------------------------------------------------------------|
|-----------------------------------5/4-5/4-----------5/4-5/4----------|
|-000-000-0-0-000--000-000-0-0-000--3/2-3/2--0-0-000--3/2-3/2--0-0-000-|
  ... ... . . ...  ... ... . . ...           . . ...           . . ...

Gtr. 1 and 2 (x4)

|---------------------|
|---------------------|
|-------5-------------|
|-2-----5-----6-----8-|
|-2-----3-----6-----8-|
|-0-----------4-----6-|

Gtr. 1

solo

Gtr. 2 (x4)

|---------------------|
|---------------------|
|---------------------|
|------5555-----------|
|-2222-3333-6666-8888-|
|-0000------4444-6666-|
  .... .... .... ....

Gtr. 1 and 2 (x2)

|------------------------------|------------------------------|
|------------------------------|------------------------------|
|------------------------------|------------------------------|
|-6------5------6------5-------|-6------5------6------5-------|
|-4------3------4------3-------|-4------3------4------3-------|
|--0-0-0--0-0-0--0-0-0--0-000--|--0-0-0--0-0-0--0-0-0--0-000--|
   . . .  . . .  . . .  . ...     . . .  . . .  . . .  . ...

Gtr. 1 and 2

|----------------------------------------------|----------------|
|----------------------------------------------|----------------|
|----------------------------------------------|-------------7--|
|----------------------------------------------|--7-----7----7--|
|-5-----------------------------6--------------|--5-----5----5--|
|-3-33333333333-555555-66666666-4-44444444444--|---0-0---0-0----|
    ........... ...... ........   ...........      . .   . .

Gtr. 1 and 2

|----------------------------------------------|-------------------|
|----------------------------------------------|-------------------|
|----------------------------------------------|-------------------|
|----------------------------------------------|-------------------|
|-5-----------------------------6--------------|-------------------|
|-3-33333333333-555555-66666666-4-44444444444--|--766-766-766-766--|
    ........... ...... ........   ...........     ... ... ... ...

Gtr. 1 and 2

|----------------------------------------------|----------------|
|----------------------------------------------|----------------|
|----------------------------------------------|-------------7--|
|----------------------------------------------|--7-----7----7--|
|-5-----------------------------6--------------|--5-----5----5--|
|-3-33333333333-555555-66666666-4-44444444444--|---0-0---0-0----|
    ........... ...... ........   ...........      . .   . .

Gtr. 1 and 2

|----------------------------------------------|----------------|
|----------------------------------------------|----------------|
|----------------------------------------------|----------------|
|----------------------------------------------|----------------|
|-5-----------------------------6--------------|--9/7-9--8/6-8--|
|-3-33333333333-555555-66666666-4-44444444444--|--7/5-7--6/4-6--|
    ........... ...... ........   ...........

Gtr. 1 and 2 (x4)

|---------------------|
|---------------------|
|-------5-------------|
|-2-----5-----6-----8-|
|-2-----3-----6-----8-|
|-0-----------4-----6-|

Gtr. 1 and 2 (x3)

|---------------------|
|---------------------|
|---------------------|
|---------------------|
|---------------------|
|-0000-8888-4444-6666-|
  .... .... .... ....

Gtr. 1 and 2

|-------------------------|
|-------------------------|
|-------------------------|
|---------------------7/3-|
|---------------------7/3-|
|-0000-8888-4444-6666-5/1-|
  .... .... .... ....



Добавлено: 07.03.2012
Другие материалы по этой песне:
  • Аккорды и текст

Страница создана 07.03.2012
http://primanota.ru/blood-red-throne/come-death-chords.htm
Привет, Гость.
Предлагаем пройти революционный курс по гитаре.
Подарок от PrimaNota.Ru, забирай!