PrimaNota.ru - самый крупный в мире бесплатный архив песенных текстов, аккордов, табулатур и нот


Blood Red Shoes - Waiting For Signs - таба, видео

Регистрация Запомнить меня
Войти через:  Facebook Google Twitter Vk Yandex Mail.ru

Blood Red Shoes - Waiting For Signs - таба, видео

Печатать
Просмотров: 145
Уроки эстрадного вокала в Санкт-Петербурге
-----------------------------------------------------------------------------------
                        Blood Red Shoes - Waiting For Signs          
-----------------------------------------------------------------------------------

Tuning: EADGBe
Tab difficulty: novice 

00:00 (x4)
e|------------------------------------------------------------------------|
B|--------------------8------8--------------------------------------------|
G|----5------5--------------------10-10-10-10--10-10-10--10-10-10-10-9-9-9|
D|------------------------------------------------------------------------|
A|----------------7-7---7--7---7--8--8--8--8---8--8--8---8--8--8--8--8-8-8|
E|5-5---5--5---5----------------------------------------------------------|

00:28 (x2)
e|-------------------------------------------------------------------------------|
B|-------------------------------------------------------------------------------|
G|-------------------------------------------------------------------------------|
D|7-7-7-7-7-7-7/10-10-10-10-10-10-10/15\14-14-14-14-14-14-14/15\14-14-14-14-14-14|
A|7-7-7-7-7-7-7/10-10-10-10-10-10-10/15\14-14-14-14-14-14-14/15\14-14-14-14-14-14|
E|5-5-5-5-5-5-5/8--8--8--8--8--8--8-/13\12-12-12-12-12-12-12/13\12-12-12-12-12-12|

00:41
e|-----------------------------------------------------------|
B|-----------------------------------------------------------|
G|-----------------------------------------------------------|
D|7-7-7-7-7-7-7\3-3-3-3-3-3-3-3\2-2-2-2-2-2-2/3\2-2-2-2-2-2-2|
A|7-7-7-7-7-7-7\3-3-3-3-3-3-3-3\2-2-2-2-2-2-2/3\2-2-2-2-2-2-2|
E|5-5-5-5-5-5-5\1-1-1-1-1-1-1-1\0-0-0-0-0-0-0/1\0-0-0-0-0-0-0|

00:48
e|-------------------------------------------------------------------------------|
B|-------------------------------------------------------------------------------|
G|-------------------------------------------------------------------------------|
D|7-7-7-7-7-7-7/10-10-10-10-10-10-10/15\14-14-14-14-14-14-14/15\14-14-14-14-14-14|
A|7-7-7-7-7-7-7/10-10-10-10-10-10-10/15\14-14-14-14-14-14-14/15\14-14-14-14-14-14|
E|5-5-5-5-5-5-5/8--8--8--8--8--8--8-/13\12-12-12-12-12-12-12/13\12-12-12-12-12-12|

00:55 (x4)
e|-------------------------------|
B|-------------------------------|
G|-------------------------------|
D|7--7--7--3-5-7-x-x-x-xxx-x-x-xx|
A|x--x--x--x-x-x-x-x-x-xxx-x-x-xx|
E|5--5--5--1-3-5-x-x-x-xxx-x-x-xx|

01:08 (x2)
e|-------------------------------------------------------------------------------|
B|-------------------------------------------------------------------------------|
G|-------------------------------------------------------------------------------|
D|7-7-7-7-7-7-7/10-10-10-10-10-10-10/15\14-14-14-14-14-14-14/15\14-14-14-14-14-14|
A|7-7-7-7-7-7-7/10-10-10-10-10-10-10/15\14-14-14-14-14-14-14/15\14-14-14-14-14-14|
E|5-5-5-5-5-5-5/8--8--8--8--8--8--8-/13\12-12-12-12-12-12-12/13\12-12-12-12-12-12|

01:21
e|-----------------------------------------------------------|
B|-----------------------------------------------------------|
G|-----------------------------------------------------------|
D|7-7-7-7-7-7-7\3-3-3-3-3-3-3-3\2-2-2-2-2-2-2/3\2-2-2-2-2-2-2|
A|7-7-7-7-7-7-7\3-3-3-3-3-3-3-3\2-2-2-2-2-2-2/3\2-2-2-2-2-2-2|
E|5-5-5-5-5-5-5\1-1-1-1-1-1-1-1\0-0-0-0-0-0-0/1\0-0-0-0-0-0-0|

01:28
e|-------------------------------------------------------------------------------|
B|-------------------------------------------------------------------------------|
G|-------------------------------------------------------------------------------|
D|7-7-7-7-7-7-7/10-10-10-10-10-10-10/15\14-14-14-14-14-14-14/15\14-14-14-14-14-14|
A|7-7-7-7-7-7-7/10-10-10-10-10-10-10/15\14-14-14-14-14-14-14/15\14-14-14-14-14-14|
E|5-5-5-5-5-5-5/8--8--8--8--8--8--8-/13\12-12-12-12-12-12-12/13\12-12-12-12-12-12|

01:35 (x4)
e|---------------------------------|
B|---------------------------------|
G|---------------------------------|
D|3-3-3-3-3-3-3-3\2-2-2-2-5-5-5-5-2|
A|3-3-3-3-3-3-3-3\2-2-2-2-5-5-5-5-2|
E|1-1-1-1-1-1-1-1\0-0-0-0-3-3-3-3-0|

01:48 (x4)
e|------------------------------------------------------------------------|
B|--------------------8------8--------------------------------------------|
G|----5------5--------------------10-10-10-10--10-10-10--10-10-10-10-9-9-9|
D|------------------------------------------------------------------------|
A|----------------7-7---7--7---7--8--8--8--8---8--8--8---8--8--8--8--8-8-8|
E|5-5---5--5---5----------------------------------------------------------|

02:16 (x2)
e|-------------------------------------------------------------------------------|
B|-------------------------------------------------------------------------------|
G|-------------------------------------------------------------------------------|
D|7-7-7-7-7-7-7/10-10-10-10-10-10-10/15\14-14-14-14-14-14-14/15\14-14-14-14-14-14|
A|7-7-7-7-7-7-7/10-10-10-10-10-10-10/15\14-14-14-14-14-14-14/15\14-14-14-14-14-14|
E|5-5-5-5-5-5-5/8--8--8--8--8--8--8-/13\12-12-12-12-12-12-12/13\12-12-12-12-12-12|

02:29
e|-----------------------------------------------------------|
B|-----------------------------------------------------------|
G|-----------------------------------------------------------|
D|7-7-7-7-7-7-7\3-3-3-3-3-3-3-3\2-2-2-2-2-2-2/3\2-2-2-2-2-2-2|
A|7-7-7-7-7-7-7\3-3-3-3-3-3-3-3\2-2-2-2-2-2-2/3\2-2-2-2-2-2-2|
E|5-5-5-5-5-5-5\1-1-1-1-1-1-1-1\0-0-0-0-0-0-0/1\0-0-0-0-0-0-0|

02:36
e|-------------------------------------------------------------------------------|
B|-------------------------------------------------------------------------------|
G|-------------------------------------------------------------------------------|
D|7-7-7-7-7-7-7/10-10-10-10-10-10-10/15\14-14-14-14-14-14-14/15\14-14-14-14-14-14|
A|7-7-7-7-7-7-7/10-10-10-10-10-10-10/15\14-14-14-14-14-14-14/15\14-14-14-14-14-14|
E|5-5-5-5-5-5-5/8--8--8--8--8--8--8-/13\12-12-12-12-12-12-12/13\12-12-12-12-12-12|

02:32 (x4)
e|-------------------------------|
B|-------------------------------|
G|-------------------------------|
D|7--7--7--3-5-7-x-x-x-xxx-x-x-xx|
A|x--x--x--x-x-x-x-x-x-xxx-x-x-xx|
E|5--5--5--1-3-5-x-x-x-xxx-x-x-xx|
Добавлено: 27.07.2012
Другие материалы по этой песне:
  • Аккорды и текст

Страница создана 27.07.2012
http://primanota.ru/blood-red-shoes/waiting-for-signs-chords.htm
Привет, Гость.
Предлагаем пройти революционный курс по гитаре.
Подарок от PrimaNota.Ru, забирай!