PrimaNota.ru - самый крупный в мире бесплатный архив песенных текстов, аккордов, табулатур и нот


Blood Red Shoes - Je Me Perds - таба, видео

Регистрация Запомнить меня
Войти через:  Facebook Google Twitter Vk Yandex Mail.ru

Blood Red Shoes - Je Me Perds - таба, видео

Печатать
Просмотров: 182
Уроки эстрадного вокала в Санкт-Петербурге
Je Me Perds
Artist: Blood Red Shoes
Album: In Time to Voices

Notes: Not much to say for this one, a simple song, but a good one. Gloriously 
heavy for these guys and fun to play, short and sweet.

Tuning: Tune half step down from Drop D tuning (Low to High: C# G# C# F# A# D#) 

Intro
                                                            X3
||-------------------------------|---------------------------|
||o------------------------------|--------------------------o|
||-------------------------------|---------------------------|
||--10--10--10--10--10-12--12--7-|-7--7--7--7--7--7--7--7-7--|
||o-8---8---8---8---8--10--10--5-|-5--5--5--5--5--5--5--5-5-o|
||-------------------------------|---------------------------|

|------------------------------|-------------------------||
|------------------------------|-------------------------||
|------------------------------|-------------------------||
|-10--10--10--10--10-12--12--7-|-7--7--7--7--7-----------||
|-8---8---8---8---8--10--10--5-|-5--5--5--5--5-----------||
|------------------------------|-------------------------||

Verse
                                                            X4
||-------------------------------|---------------------------|
||o------------------------------|--------------------------o|
||-------------------------------|---------------------------|
||--10--10--10--10--10-12--12--7-|-7--7--7--7--7--7--7--7-7--|
||o-8---8---8---8---8--10--10--5-|-5--5--5--5--5--5--5--5-5-o|
||-------------------------------|---------------------------|

Chorus
||------------------------|--------------------------|
||------------------------|--------------------------|
||------------------------|--------------------------|
||------------------------|--------------------------|
||-5--5--5--5--5--7--7--3-|-3--3--3--3--/10----\8----|
||-5--5--5--5--5--7--7--3-|-3--3--3--3---------------|

|------------------------|----------------------|
|------------------------|----------------------|
|------------------------|----------------------|
|------------------------|----------------------|
|-5--5--5--5--5--7--7--3-|-3--3--3--3--0--------|
|-5--5--5--5--5--7--7--3-|-3--3--3--3--0--------|

|------------------------|--------------------------|
|------------------------|--------------------------|
|------------------------|--------------------------|
|------------------------|--------------------------|
|-5--5--5--5--5--7--7--3-|-3--3--3--3--/10----\8----|
|-5--5--5--5--5--7--7--3-|-3--3--3--3---------------|

|------------------------|-------------------------||
|------------------------|-------------------------||
|------------------------|-------------------------||
|------------------------|-------------------------||
|-5--5--5--5--5--7--7--3-|-3--3--3--3--2--2--2--2--||
|-5--5--5--5--5--7--7--3-|-3--3--3--3--2--2--2--2--||

Post-Chorus
||------------------|--------------------|------------------|--------------------|
||------------------|--------------------|------------------|--------------------|
||------------------|---^----------------|------------------|--------------------|
||------------------|-10b----------------|------------------|---^----------------|
||-0----------------|--------------------|-0----------------|-10b----------------|
||-0----------------|--------------------|-0----------------|--------------------|

|------------------|--------------------|------------------|----------------------||
|------------------|--------------------|------------------|----------------------||
|------------------|---^----------------|------------------|----------------------||
|------------------|-10b----------------|------------------|---^------------------||
|-0----------------|--------------------|-0----------------|-10b--------10--------||
|-0----------------|--------------------|-0----------------|----------------------||

Repeat Intro
Repeat Verse
Repeat Chorus

End on a low C# whole note.
Добавлено: 29.11.2013
Другие материалы по этой песне:

Страница создана 24.06.2013
http://primanota.ru/blood-red-shoes/je-me-perds-chords.htm
Привет, Гость.
Предлагаем пройти революционный курс по гитаре.
Подарок от PrimaNota.Ru, забирай!