PrimaNota.ru - самый крупный в мире бесплатный архив песенных текстов, аккордов, табулатур и нот


Blood Red Shoes - Follow The Lines - текст песни, таба, видео

Регистрация Запомнить меня
Войти через:  Facebook Google Twitter Vk Yandex Mail.ru

Blood Red Shoes - Follow The Lines - текст песни, таба, видео

Печатать
Просмотров: 227
Уроки эстрадного вокала в Санкт-Петербурге
Авторы музыки: Blood Red Shoes
Авторы текста: Blood Red Shoes
------------------------------------------------------
          Blood Red Shoes - Follow The Lines
------------------------------------------------------


Tuning: EADGBe


  (0:00) Play 4x
e|---------------------------------------------------|
B|--8--8--8--8--8--8--8--8--11-11-11-11-11-11-11-11--|
G|--9--9--9--9--9--9--9--9--12-12-12-12-12-12-12-12--|
D|--7--7--7--7--7--7--7--7--10-10-10-10-10-10-10-10--|
A|---------------------------------------------------|
E|---------------------------------------------------|

e|---------------------------------------------------|
B|--8--8--8--8--8--8--8--8--8--8--8--8--8--8--8--8---|
G|--9--9--9--9--9--9--9--9--9--9--9--9--9--9--9--9---|
D|---------------------------------------------------|
A|--7--7--7--7--7--7--7--7--7--7--7--7--7--7--7--7---|
E|---------------------------------------------------|


  (0:29)
e|---------------------------------------------------|
B|--8~------8-8-8~------8-8-8~------8-8-8~-----------|
G|--9~------9-9-9~------9-9-9~------9-9-9~-----------|
D|--9~------9-9-9~------9-9-9~------9-9-9~-----------|
A|--7~------7-7-7~------7-7-7~------7-7-7~-----------|
E|---------------------------------------------------|


  (0:37) Play 4x
e|---------------------------------------------------|
B|--8--8--8--8--8--8--8--8--8--8--8--8--8--8--8--8---|
G|--9--9--9--9--9--9--9--9--9--9--9--9--9--9--9--9---|
D|---------------------------------------------------|
A|--7--7--7--7--7--7--7--7---------------------------|
E|--------------------------7--7--7--7--7--7--7--7---|

e|---------------------------------------------------|
B|--8--8--8--8--8--8--8--8--8--8--8--8--8--8--8--8---|
G|--9--9--9--9--9--9--9--9--9--9--9--9--9--9--9--9---|
D|---------------------------------------------------|
A|---------------------------------------------------|
E|--0--0--0--0--0--0--0--0--0--0--0--0--0--0--0--0---|


  (1:08) Play 2x
e|---------------------------------------------------|
B|--8--8--8--8--8--8--8--8--3--3--3--3--3--3--3--3---|
G|--9--9--9--9--9--9--9--9--4--4--4--4--4--4--4--4---|
D|---------------------------------------------------|
A|--7--7--7--7--7--7--7--7---------------------------|
E|--------------------------3--3--3--3--3--3--3--3---|

e|---------------------------------------------------|
B|--3--3--3--3--3--3--3--3--8--8--8--8--8--8--8--8---|
G|--4--4--4--4--4--4--4--4--9--9--9--9--9--9--9--9---|
D|---------------------------------------------------|
A|--2--2--2--2--2--2--2--2--7--7--7--7--7--7--7--7---|
E|---------------------------------------------------|


  (1:22) Play 2x
e|---------------------------------------------------|
B|--8~----------5~----------8~----------5~-----------|
G|--9~----------5~----------9~----------5~-----------|
D|--9~----------5~----------9~----------5~-----------|
A|--7~----------3~----------7~----------3~-----------|
E|---------------------------------------------------|


  (1:37) Play 4x
e|---------------------------------------------------|
B|---------------------------------------------------|
G|---------------------------------------------------|
D|--2--2--2--2--2--2--2--2--9--9--9--9--9--9--9--9---|
A|--2--2--2--2--2--2--2--2--9--9--9--9--9--9--9--9---|
E|--0--0--0--0--0--0--0--0--7--7--7--7--7--7--7--7---|
PM  .  .  .  .  .  .  .  .  .  .  .  .  .  .  .  .

e|---------------------------------------------------|
B|---------------------------------------------------|
G|---------------------------------------------------|
D|--10-10-10-10-10-10-10-10-5--5--5--5--5--5--5--5---|
A|--10-10-10-10-10-10-10-10-5--5--5--5--5--5--5--5---|
E|--8--8--8--8--8--8--8--8--3--3--3--3--3--3--3--3---|
PM  .  .  .  .  .  .  .  .  .  .  .  .  .  .  .  .


  (2:06) Play 2x
e|---------------------------------------------------|
B|--8--8--8--8--8--8--8--8--11-11-11-11-11-11-11-11--|
G|--9--9--9--9--9--9--9--9--12-12-12-12-12-12-12-12--|
D|--7--7--7--7--7--7--7--7--10-10-10-10-10-10-10-10--|
A|---------------------------------------------------|
E|---------------------------------------------------|

e|---------------------------------------------------|
B|--8--8--8--8--8--8--8--8--8--8--8--8--8--8--8--8---|
G|--9--9--9--9--9--9--9--9--9--9--9--9--9--9--9--9---|
D|---------------------------------------------------|
A|--7--7--7--7--7--7--7--7--7--7--7--7--7--7--7--7---|
E|---------------------------------------------------|


  (2:22)
e|--8--8--8--8--------------8--8--8--8---------------|
B|--8--8--8--8--------------8--8--8--8---------------|
G|--9--9--9--9--x-x-9~------9--9--9--9--x-x-9~-------|
D|--------------x-x-9~------------------x-x-9~-------|
A|--------------x-x-7~------------------x-x-7~-------|
E|--------------x-x-0~------------------x-x-0~-------|

e|--8--8--8--8---------------------------------------|
B|--8--8--8--8---------------------------------------|
G|--9--9--9--9--x-x-9~-------------------------------|
D|--------------x-x-9~------------------9--9--9--9---|
A|--------------x-x-7~------------9--9--9--9--9--9---|
E|--------------x-x-0~------7--7--7--7--7--7--7--7---|


  (2:36) Play 4x
e|---------------------------------------------------|
B|--8--8--8--8--8--8--8--8--3--3--3--3--3--3--3--3---|
G|--9--9--9--9--9--9--9--9--4--4--4--4--4--4--4--4---|
D|---------------------------------------------------|
A|--7--7--7--7--7--7--7--7---------------------------|
E|--------------------------3--3--3--3--3--3--3--3---|

e|---------------------------------------------------|
B|--3--3--3--3--3--3--3--3--8--8--8--8--8--8--8--8---|
G|--4--4--4--4--4--4--4--4--9--9--9--9--9--9--9--9---|
D|---------------------------------------------------|
A|--2--2--2--2--2--2--2--2--7--7--7--7--7--7--7--7---|
E|---------------------------------------------------|


  (3:05) Play 2x
e|---------------------------------------------------|
B|---------------------------------------------------|
G|--9~-------9--4~-------4--4~-------4--9~-----------|
D|---------------------------------------------------|
A|--7~-------7--2~-------2--------------7~-----------|
E|--------------------------3~-------3---------------|


  (3:20)
e|---------------------------------------------------|
B|---------------------------------------------------|
G|---------------------------------------------------|
D|--2~-----------------------------------------------|
A|--2~-----------------------------------------------|
E|--0~-----------------------------------------------|
Добавлено: 14.06.2012
Другие материалы по этой песне:
  • Аккорды и текст

Страница создана 14.06.2012
http://primanota.ru/blood-red-shoes/follow-the-lines-chords.htm
Привет, Гость.
Предлагаем пройти революционный курс по гитаре.
Подарок от PrimaNota.Ru, забирай!