PrimaNota.ru - самый крупный в мире бесплатный архив песенных текстов, аккордов, табулатур и нот


Blood Red Shoes - Count Me Out - текст песни, таба, видео

Регистрация Запомнить меня
Войти через:  Facebook Google Twitter Vk Yandex Mail.ru

Blood Red Shoes - Count Me Out - текст песни, таба, видео

Печатать
Просмотров: 211
Авторы музыки: Blood Red Shoes
Авторы текста: Blood Red Shoes
------------------------------------------------------
            Blood Red Shoes - Count Me Out
------------------------------------------------------


Tuning: EADGBe


  (0:00) Intro (play 2x)
e|---------------------------------------------------|
B|---------------------------------------------------|
G|---------------------------------------------------|
D|--5-----x--5--5-----x--5--5-----x--5--5-----x--x---|
A|--5-----x--5--5-----x--5--5-----x--5--5-----x--x---|
E|--3-----x--3--3-----x--3--3-----x--3--3-----x--x---|

e|---------------------------------------------------|
B|---------------------------------------------------|
G|--------9--9--------9--9--------9--9--------9--9---|
D|---------------------------------------------------|
A|---------------------------------------------------|
E|--7--7--------7--7--------7--7--------7--7---------|


  (0:14) Verse (play 4x)
e|---------------------------------------------------|
B|---------------------------------------------------|
G|---------------------------------------------------|
D|--5-----x--5--5-----x--5--5-----x--5--5-----x--x---|
A|--5-----x--5--5-----x--5--5-----x--5--5-----x--x---|
E|--3-----x--3--3-----x--3--3-----x--3--3-----x--x---|

e|---------------------------------------------------|
B|---------------------------------------------------|
G|--------9--9--------7--7---------------------------|
D|--------------------------------7------------------|
A|--------------------------------------7--7--7--0---|
E|--7--7--------7--7--------7--7-----7---------------|


  (0:42) Chorus
e|---------------------------------------------------|
B|---------------------------------------------------|
G|---------------------------------------------------|
D|--12---12---------12--x-x-2----2----------2--x-x---|
A|--12---12---------12--x-x-2----2----------2--x-x---| \
E|--10---10---------10--x-x-0----0----------0--x-x---|  \
                                                         play 2x
e|---------------------------------------------------|  /
B|---------------------------------------------------| /
G|---------------------------------------------------|
D|---------------------------------------------------|
A|---------------------------------------------------|
E|--3--3--3--3--3--3--3--3-/15-15-15-15-15-15-15-15--|

e|---------------------------------------------------|
B|---------------------------------------------------|
G|---------------------------------------------------|
D|--12---12---------12--x-x-2----2----------2--x-x---|
A|--12---12---------12--x-x-2----2----------2--x-x---| \
E|--10---10---------10--x-x-0----0----------0--x-x---|  \
                                                         play 2x
e|---------------------------------------------------|  /
B|---------------------------------------------------| /
G|---------------------------------------------------|
D|---------------------------------------------------|
A|--------2--2--------2--2---------------------------|
E|--3--3--------3--3--------0-----------2------------|

e|---------------------------------------------------|
B|---------------------------------------------------|
G|---------------------------------------------------|
D|---------------------------------------------------|
A|--------2--2--------2--2---------------------------|
E|--3--3--------3--3--------12----------10-----------|


  (1:14) Verse (play 4x)
e|---------------------------------------------------|
B|---------------------------------------------------|
G|---------------------------------------------------|
D|--5-----x--5--5-----x--5--5-----x--5--5-----x--x---|
A|--5-----x--5--5-----x--5--5-----x--5--5-----x--x---|
E|--3-----x--3--3-----x--3--3-----x--3--3-----x--x---|

e|---------------------------------------------------|
B|---------------------------------------------------|
G|--------9--9--------7--7---------------------------|
D|--------------------------------7------------------|
A|--------------------------------------7--7--7--0---|
E|--7--7--------7--7--------7--7-----7---------------|


  (1:42) Chorus
e|---------------------------------------------------|
B|---------------------------------------------------|
G|---------------------------------------------------|
D|--12---12---------12--x-x-2----2----------2--x-x---|
A|--12---12---------12--x-x-2----2----------2--x-x---| \
E|--10---10---------10--x-x-0----0----------0--x-x---|  \
                                                         play 2x
e|---------------------------------------------------|  /
B|---------------------------------------------------| /
G|---------------------------------------------------|
D|---------------------------------------------------|
A|---------------------------------------------------|
E|--3--3--3--3--3--3--3--3-/15-15-15-15-15-15-15-15--|

e|---------------------------------------------------|
B|---------------------------------------------------|
G|---------------------------------------------------|
D|--12---12---------12--x-x-2----2----------2--x-x---|
A|--12---12---------12--x-x-2----2----------2--x-x---| \
E|--10---10---------10--x-x-0----0----------0--x-x---|  \
                                                         play 2x
e|---------------------------------------------------|  /
B|---------------------------------------------------| /
G|---------------------------------------------------|
D|---------------------------------------------------|
A|--------2--2--------2--2---------------------------|
E|--3--3--------3--3--------0-----------2------------|

e|---------------------------------------------------|
B|---------------------------------------------------|
G|---------------------------------------------------|
D|---------------------------------------------------|
A|--------2--2--------2--2---------------------------|
E|--3--3--------3--3--------0-----------2------------|

e|---------------------------------------------------|
B|---------------------------------------------------|
G|---------------------------------------------------|
D|---------------------------------------------------|
A|--------2--2--------2--2---------------------------|
E|--3--3--------3--3--------12----------10-----------|


  (2:18) Bridge (play 6x)
e|---------------------------------------------------|
B|--------0--0--3--3--0--0--5--5--5--5--5--3--3--3---|
G|--12\---0--0--0--0--0--0--0--0--0--0--0--0--0--0---|
D|---------------------------------------------------|
A|---------------------------------------------------|
E|---------------------------------------------------|


  (2:39) Chorus
e|---------------------------------------------------|
B|---------------------------------------------------|
G|---------------------------------------------------|
D|--12---12---------12--x-x-2----2----------2--x-x---|
A|--12---12---------12--x-x-2----2----------2--x-x---| \
E|--10---10---------10--x-x-0----0----------0--x-x---|  \
                                                         play 2x
e|---------------------------------------------------|  /
B|---------------------------------------------------| /
G|---------------------------------------------------|
D|---------------------------------------------------|
A|---------------------------------------------------|
E|--3--3--3--3--3--3--3--3-/15-15-15-15-15-15-15-15--|

e|---------------------------------------------------|
B|---------------------------------------------------|
G|---------------------------------------------------|
D|--12---12---------12--x-x-2----2----------2--x-x---|
A|--12---12---------12--x-x-2----2----------2--x-x---| \
E|--10---10---------10--x-x-0----0----------0--x-x---|  \
                                                         play 2x
e|---------------------------------------------------|  /
B|---------------------------------------------------| /
G|---------------------------------------------------|
D|---------------------------------------------------|
A|--------2--2--------2--2---------------------------|
E|--3--3--------3--3--------0-----------2------------|

e|---------------------------------------------------|
B|---------------------------------------------------|
G|---------------------------------------------------|
D|---------------------------------------------------|
A|--------2--2--------2--2---------------------------|
E|--3--3--------3--3--------0-----------2------------|


  (3:11) Outro
e|---------------------------------------------------|
B|---------------------------------------------------|
G|---------------------------------------------------|
D|---------------------------------------------------| 3x
A|--5--5--9--9--5--5--9--9--2-----------4------------|
E|--3--3--7--7--3--3--7--7--0-----------2------------|

e|---------------------------------------------------|
B|---------------------------------------------------|
G|---------------------------------------------------|
D|--------------------------2-----------3~-----------|
A|--5--5--9--9--5--5--9--9--2-----------3~-----------|
E|--3--3--7--7--3--3--7--7--0-----------1~-----------|



************************************

| /   slide up
| \   slide down
| h   hammer-on
| p   pull-off
| ~   vibrato
| +   harmonic
| x   Mute note
| b   Bend
| pb  Pre-bend
| br  Bend release
| pbr Pre-bend release
| brb Bend release bend

************************************
Добавлено: 14.05.2012
Другие материалы по этой песне:

Страница создана 14.05.2012
http://primanota.ru/blood-red-shoes/count-me-out-chords.htm
Привет, Гость.
Предлагаем пройти революционный курс по гитаре.
Подарок от PrimaNota.Ru, забирай!