PrimaNota.ru - самый крупный в мире бесплатный архив песенных текстов, аккордов, табулатур и нот


Blood On The Dance Floor - The Comeback - таба, видео

Регистрация Запомнить меня
Войти через:  Facebook Google Twitter Vk Yandex Mail.ru

Blood On The Dance Floor - The Comeback - таба, видео

Печатать
Просмотров: 145
Уроки эстрадного вокала в Санкт-Петербурге
Авторы: Jayy Von Monroe, Dahvie Vanity
Авторы музыки: Jayy Von Monroe, Dahvie Vanity

-------------------------------------------------------------------------------
                             The Comeback - Blood on the dance floor
-------------------------------------------------------------------------------
Tabbed by: obsidion123
E-mail: asmnatty@hotmail.co.uk

Tuning: drop d

x= palm mute
/=slide
b- bend
e|---------------------------------------------------------------------|
B|---------------------------------------------------------------------|
G|---------------------------------------------------------------------|
D|--X-X-X-X-X-X-X-X-X-X-X-X------(SLIDE)-------------------------------|
A|--X-X-X-X-X-X-X-X-X-X-X-X---12/11/10/9/8/7/6/5/4/3/2/1---------------|
D|--X-X-X-X-X-X-X-X-X-X-X-X---12/11/10/9/8/7/6/5/4/3/2/1---------------|


e|---------------------------------------------------------------------|
B|---------------------------------------------------------------------|
G|---------------------------------------------------------------------|
D|--2-2-2-2---2-2-2-2---2-2-2-2---2-2-2-2--X-2-3-----------------------|
A|--2-2-2-2---2-2-2-2---2-2-2-2---2-2-2-2--X-2-3-----------------------|
D|--2-2-2-2---2-2-2-2---2-2-2-2---2-2-2-2--X-2-3-----------------------|

e|---------------------------------------------------------------------|
B|---------------------------------------------------------------------|
G|---------------------------------------------------------------------|
D|--X-X-X-X-X-X-X-X-X-X-X-X--3-----------------------------------------|
A|--X-X-X-X-X-X-X-X-X-X-X-X--3-----------------------------------------|
D|--X-X-X-X-X-X-X-X-X-X-X-X--3-----------------------------------------|



e|---------------------------------------------------------------------|
B|---------------------------------------------------------------------|
G|---------------------------------------------------------------------|
D|--2-2-2-2---2-2-2-2---2-2-2-2---2-2-2-2--X-2-3-----------------------|
A|--2-2-2-2---2-2-2-2---2-2-2-2---2-2-2-2--X-2-3-----------------------|
D|--2-2-2-2---2-2-2-2---2-2-2-2---2-2-2-2--X-2-3-----------------------|


e|---------------------------------------------------------------------|
B|---------------------------------------------------------------------|
G|---------------------------------------------------------------------|
D|--3--3--3-3-3-3--3--3--3-3-3--4-4-4-4-4-4----------------------------|
A|--3--3--3-3-3-3--3--3--3-3-3--2-2-2-2-2-2--2-2-2-2-2-2-2-2-2-2-2-2---|
D|--3--3--3-3-3-3--3--3--3-3-3---------------2-2-2-2-2-2-2-2-2-2-2-2---|
REPEAT 2X

e|--------------------------------------------------------------------|
B|-----------------------------THEYRE TENS ---------------------------|
G|--------------------------------------------------------------------|
D|--2-2-2-2---10-10-10-10-10-101010101010--8-8-8----------------------|
A|--2-2-2-2---8--8--8--8--8--8-8-8-8-8-8---6-6-6--X-X-X-X-------------|
D|--2-2-2-2---------------------------------------X-X-X-X-------------|

CHORUS
COMEBACK COME BACK TO ME SAVE ME FROM MY MISERY...
e|---------------------------------------------------------------------|
B|---------------------------------------------------------------------|
G|--5--7--5--7--2--4--5--5--3/1-1-0-1-1-5-5-5-2-4-7-2-5--4-5-4-5-0-1---|
D|---------------------------------------------------------------------|
A|---------------------------------------------------------------------|
D|---------------------------------------------------------------------|

2ND VERSE GUITAR 1
e|---------------------------------------------------------------------|
B|---------------------------------------------------------------------|
G|---------------------------------------------------------------------|
D|--2-2-2-2---2-2-2-2---2-2-2-2---2-2-2-2--X-2-3-----------------------|
A|--2-2-2-2---2-2-2-2---2-2-2-2---2-2-2-2--X-2-3-----------------------|
D|--2-2-2-2---2-2-2-2---2-2-2-2---2-2-2-2--X-2-3-----------------------|

GUITAR 2
e|----------------------------------------------------------------------|
B|----------------------------------------------------------------------|
G|--11-12-13--14--13b------9--10-9-7-9b-----11-12-13-14-13b-------------|
D|----------------------------------------------------------------------|
A|----------------------------------------------------------------------|
D|----------------------------------------------------------------------|

e|---------------------------------------------------------------------|
B|--7-8-9-10--9-10-11-12---11-12-13-14-13b-----------------------------|
G|---------------------------------------------------------------------|
D|---------------------------------------------------------------------|
A|---------------------------------------------------------------------|
D|---------------------------------------------------------------------|


e|--------------------------------------------------------------------|
B|-----------------------------THEYRE TENS ---------------------------|
G|--------------------------------------------------------------------|
D|--2-2-2-2---10-10-10-10-10-101010101010--8-8-8----------------------|
A|--2-2-2-2---8--8--8--8--8--8-8-8-8-8-8---6-6-6--X-X-X-X-------------|
D|--2-2-2-2---------------------------------------X-X-X-X-------------|

CHORUS
COMEBACK COME BACK TO ME SAVE ME FROM MY MISERY...
e|---------------------------------------------------------------------|
B|---------------------------------------------------------------------|
G|--5--7--5--7--2--4--5--5--3/1-1-0-1-1-5-5-5-2-4-7-2-5--4-5-4-5-0-1---|
D|---------------------------------------------------------------------|
A|---------------------------------------------------------------------|
D|---------------------------------------------------------------------|

guitar solo
e|----------------------------------------------------------------------------------|
B|---------------------------------------------------------------14-16--------------|
G|--4-4-4-5b-5--7--2-4--12-12-12-10-12-16-14-16-14b--14-14-14-16-------14-16--------|
D|----------------------------------------------------------------------------------|
A|----------------------------------------------------------------------------------|
D|----------------------------------------------------------------------------------|


e|-------------------------------------20-20-18--------------------------------|
B|--12-12-12-13-13-15-10-11------18-20-----------17-19-20-20-19b-15-17b-18-17--|b
G|-----------------------------------------------------------------------------|
D|-----------------------------------------------------------------------------|
A|-----------------------------------------------------------------------------|
D|-----------------------------------------------------------------------------|

CHORUS
COMEBACK COME BACK TO ME SAVE ME FROM MY MISERY...
e|---------------------------------------------------------------------|
B|---------------------------------------------------------------------|
G|--5--7--5--7--2--4--5--5--3/1-1-0-1-1-5-5-5-2-4-7-2-5--4-5-4-5-0-1---|
D|---------------------------------------------------------------------|
A|---------------------------------------------------------------------|
D|---------------------------------------------------------------------|
Добавлено: 22.09.2013
Другие материалы по этой песне:
  • Аккорды и текст

Страница создана 22.09.2013
http://primanota.ru/blood-on-the-dance-floor/the-comeback-chords.htm
Привет, Гость.
Предлагаем пройти революционный курс по гитаре.
Подарок от PrimaNota.Ru, забирай!