PrimaNota.ru - самый крупный в мире бесплатный архив песенных текстов, аккордов, табулатур и нот


Blood Of The Martyrs - Vietnamese Two Step Viper - таба, видео

Регистрация Запомнить меня
Войти через:  Facebook Google Twitter Vk Yandex Mail.ru

Blood Of The Martyrs - Vietnamese Two Step Viper - таба, видео

Печатать
Просмотров: 65
Tuning - Drop A#
------
Legend
. Palm mute
h hammer on
p pull off
v vibrato
t tremolo
-----

Updated, got pretty much everything but the ending solo.

 0:00-0:14
|-------------------------------------------|
|------10--10-10---10--10-10-10-10---10-10--|
|------13--13-13---13--13-13-13-13---13-13--|
|-------------------------------------------|x4
|--0-0-----------0-----------------0--------|
|--0-0-----------0-----------------0--------|
pm . .           .                 .   
   
 0:14-0:21
|------13--13-13---13--13-13-13-13---13-13--|
|------17--17-17---17--17-17-17-17---17-17--|
|-------------------------------------------|
|-------------------------------------------|x2
|--0-0-----------0-----------------0--------|
|--0-0-----------0-----------------0--------|
   . .           .                 .  
 
 0:21-0:35
|----------------------------------------------------|
|----------------------------------------------------|
|----------------------------------------------------|
|----------------------------------------------------|x2
|----------------------------------------------------|
|--0-0-0--0-0---000000--000000--0-0-0--0-0---000000--|
   .            ......  ......  .            ......

 0:35-0:42
|------------------------------------------------------------------|
|--12-12h13p12-12-12h13p12-16p12-13p12-12-12h13p12-12-12h13p12-----|
|--------------------------------------------------------------11~-|
|------------------------------------------------------------------|
|------------------------------------------------------------------|
|------------------------------------------------------------------|

 0:42-0:56
|----------------------------------------------------------------------------------|
|--12-12h13p12-12-12h13p12-16p12-13p12-12--13--12--13--18ph----12--13--12--13------|
|------------------------------------------------------------------------------11v-|
|----------------------------------------------------------------------------------|
|----------------------------------------------------------------------------------|
|----------------------------------------------------------------------------------|

 0:56-1:02
|------------------------------------------------------|
|------------------------------------------------------|
|------------------------------------------------------|
|------------------------------------------------------|x2
|------------------------------------------------------|
|--1-2-1-0-1--1-2-1-0-1--1-2-1-0-1-2-1-0-1--1-2-1-0-1--|

 1:02-1:10
|------------------------------------------------------|
|------------------------------------------------------|
|------------------------------------------------------|
|------------------------------------------------------|x2
|--1-2-1-0-1--1-2-1-0-1--1-2-1-0-1-2-1-0-1--1-2-1-0-1--|
|--1-2-1-0-1--1-2-1-0-1--1-2-1-0-1-2-1-0-1--1-2-1-0-1--|

 1:10-1:16
|-----------------------------------------------------------|
|-----------------------------------------------------------|
|-----------------------------------------------------------|
|-----------------------------------------------------------|
|--1-2-1-0-1~~-1-2-1-0-1-2-1-0-1~~-1-2-1-0-0-0-0-0-0-0-0-0--|
|--1-2-1-0-1~~-1-2-1-0-1-2-1-0-1~~-1-2-1-0-0-0-0-0-0-0-0-0--|
                                           . . . . . . . . 
 1:16-1:30
|--------------------------------------------------------------------|
|--------------------------------------------------------------------|
|--------------------------------------------------------------------|
|--------------------------------------------------------------------|x2
|--1-0--8-7--6-5--0-0-0-0-0-0-0-0--1-0--8-7--13-12--0-0-0-0-0-0-0-0--|
|--1-0--8-7--6-5--0-0-0-0-0-0-0-0--1-0--8-7--13-12--0-0-0-0-0-0-0-0--|
                  . . . . . . . .                   . . . . . . . . 
 1:30-1:38
|----------------------------------------------------------|
|----------------------------------------------------------|
|----------------------------------------------------------|
|----------------------------------------------------------|x2
|--1-0--8-7--6-5--0-0-0-0-0-0-0-0--1-0--8-7--13--12--3--6--|
|--1-0--8-7--6-5--0-0-0-0-0-0-0-0--1-0--8-7--13--12--3--6--|
                  . . . . . . . .   
 1:38-1:54
|-------------------------------------------|
|-------------------------------------------|
|-------------------------------------------|
|-------------------------------------------|x2
|--0--0---0--0---0-0-----0--0---0--0---0-0--|
|--1--1---1--1---1-1-----1--1---1--1---1-1--|

            
 1:54-2:07
|-----------------------------------------------------------|
|-----------------------------------------------------------|
|-----------------------------------------------------------|
|-----------------------------------------------------------|x2
|-----3---5---6---5----2-2-2-2----3---5---6---5----2-2-2-2--|
|--000-000-000-000-000---------000-000-000-000-000----------|
pm ... ... ... ... ...         ... ... ... ... ...

 2:07-2:14
|----------------------------------------|
|----------------------------------------|
|----------------------------------------|
|--0-----0--0---0-0-0-0-0-0--0-----0--0--|
|--0-----0--0---0-0-0-0-0-0--0-----0--0--|
|--0-----0--0---0-0-0-0-0-0--0-----0--0--|
   .     .  .   . . . . . .  .     .  .
 2:14-2:26
|------------------------------------------------------|
|------------------------------------------------------|
|------------------------------------------------------|
|--0-----0--0---0-0-0-0-0-0--0-----0--0---0-0-0-0-0-0--|x2
|--0-----0--0---0-0-0-0-0-0--0-----0--0---0-0-0-0-0-0--|
|--0-----0--0---0-0-0-0-0-0--0-----0--0---0-0-0-0-0-0--|
   .     .  .   . . . . . .  .     .  .   . . . . . . 
 2:26-2:38
|----------------------------------|
|----------------------------------|
|----------------------------------|
|----------------------------------|
|--3t--6t-5t--2t----3t--6t-5t--2t--|
|----------------------------------|

|----------------------------------|
|----------------------------------|
|----------------------------------|
|--3t--6t-5t--2t----3t--6t-5t--2t--|
|--3t--6t-5t--2t----3t--6t-5t--2t--|
|----------------------------------|

2:38-3:27
|-------------------------------------------------------------------|
|-------------------------------------------------------------------|
|--5-5-5-5-5-5-5-5--------------------------------------------------|
|--5-5-5-5-5-5-5-5-6-6-6-6-6-6-6-6-8-8-8-8-8-8-8-8-3-3-3-3-3-3-3-3--|
|--3-3-3-3-3-3-3-3-6-6-6-6-6-6-6-6-8-8-8-8-8-8-8-8-3-3-3-3-3-3-3-3--|
|------------------6-6-6-6-6-6-6-6-8-8-8-8-8-8-8-8-3-3-3-3-3-3-3-3--|
   . . . . . . . . . . . . . . . . . . . . . . . . . . . . . . . . 

|--------------------------------------------------------|
|--------------------------------------------------------|
|--5-5----5-5--------------------------------------------|
|--5-5----5-5----6-6----6-6----8-8----8-8----3-3----3-3--|
|--3-3----3-3----6-6----6-6----8-8----8-8----3-3----3-3--|
|----------------6-6----6-6----8-8----8-8----3-3----3-3--|
   . .    . .    . .    . .    . .    . .    . .    . .

|----------------------------------------------------|
|----------------------------------------------------|
|--5-5-5-5-5-----------------------------------------|
|--5-5-5-5-5----6-6-6-6-6----8-8-8-8-8----3-3-3-3-3--|
|--3-3-3-3-3----6-6-6-6-6----8-8-8-8-8----3-3-3-3-3--|
|---------------6-6-6-6-6----8-8-8-8-8----3-3-3-3-3--|

|-----------------|
|-----------------|
|--5--------------|
|--5---6---8---3--|x2
|--3---6---8---3--|
|------6---8---3--|
Добавлено: 05.06.2013
Вам также может быть интересно:
Другие материалы по этой песне:
  • Аккорды и текст

Страница создана 05.06.2013
http://primanota.ru/blood-of-the-martyrs/vietnamese-two-step-viper-chords.htm
Привет, Гость.
Предлагаем пройти революционный курс по гитаре.
Подарок от PrimaNota.Ru, забирай!