PrimaNota.ru - самый крупный в мире бесплатный архив песенных текстов, аккордов, табулатур и нот


Blood Hound Gang - Fire Water Burn - таба, видео

Регистрация Запомнить меня
Войти через:  Facebook Google Twitter Vk Yandex Mail.ru

Blood Hound Gang - Fire Water Burn - таба, видео

Печатать
Просмотров: 508
Title: Fire Water Burn
Artist: Bloodhound Gang 
Album: One Fierce Beer Coaster

Instrument: 6 String Guitar

Tabbed by: Horst

Tuning: Standard (E A D G B E)



listen to the song and you will hear the rhythm

 
riff 1 
  
E|---3-----------|--------------|---3-----------|---------------||
A|---3-----------|--------------|---3-----------|---------------||
B|---------------|--------------|---------------|---------------||
G|---------------|---2----------|---------------|---2-----------||
D|---2-----------|---2----------|---2-----------|---2-----------||
A|---3-----------|--------------|---3-----------|---------------||

riff 2
     
E|---3-----------|--------------|---3-----------|---------------||
B|---3-----------|--------------|---3-----------|---------------||
G|---------------|--------------|---------------|---------------||
D|---------------|---2----------|---------------|---2-----------||
A|---2-----------|-----2--------|---2-----------|---2-----------||
E|---3-----------|--------------|---3-----------|---------------||

                                                
E|---3-----------|--------------|---2-----------|---------------||
B|---3-----------|--------------|---3-----------|---1-----------||
G|---------------|--------------|---2-----------|---------------||
D|---------------|---2----------|---------------|---2-----------||
A|---2-----------|---2----------|---------------|---3-----------||
E|---3-----------|--------------|---------------|---------------||

riff 3

E|---------------|--------------|---------------|---------------||
B|---------------|--------------|---------------|---------------||
G|---------------|--------------|---------------|---------------||
D|---5-----------|---2----------|---5-----------|---2-----------||
A|---5-----------|---2----------|---5-----------|---2-----------||
E|---3-----------|--------------|---3-----------|---------------||


riff 4

E|---3-----------|--------------|---3-----------|---------------||
A|---3-----------|--------------|---3-----------|---------------||
B|---------------|--------------|---------------|---------------||
G|---------------|---2----------|---------------|---2-----------||
D|---2-----------|---2----------|---2-----------|---2-----------||
A|---3-----------|--------------|---3-----------|---------------||


E|---3-----------|---------------|---------------|--------------||
B|---3-----------|---------------|---1-----------|---1----------||
G|---------------|---------------|---2-----------|--------------||
D|---------------|---2-----------|---2-----------|---2----------||
A|---2-----------|---2-----------|---------------|---3----------||
E|---3-----------|---------------|---------------|--------------||

riff 5

E|---------------|---------------|---------------|--------------||
B|---------------|---------------|---------------|--------------||
G|---------------|---------------|---------------|--------------||
D|---5-----------|---2-----------|---5-----------|---2----------||
A|---5-----------|---2-----------|---5-----------|---2----------||
E|---3-----------|---------------|---3-----------|--------------||

E|---------------|---------------|---------------|--------------||
B|---------------|---------------|---1-----------|--------------||
G|---------------|---------------|---2-----------|---5----------||
D|---5-----------|---2-----------|---2-----------|---5----------||
A|---5-----------|---2-----------|---------------|---3----------||
E|---3-----------|---------------|---------------|--------------||

riff 6

E|---------------|---------------|---------------|--------------||
B|---------------|---------------|---------------|--------------||
G|---------------|---------------|---------------|--------------||
D|---5-----------|---2-----------|---5-----------|---2----------||
A|---5-----------|---2-----------|---5-----------|---2----------||
E|---3-----------|---------------|---3-----------|--------------||

E|---------------|---------------|---2-----------|--------------||
B|---------------|---------------|---3-----------|--------------||
G|---------------|---------------|---2-----------|---5----------||
D|---5-----------|---2-----------|---------------|---5----------||
A|---5-----------|---2-----------|---------------|---3----------||
E|---3-----------|---------------|---------------|--------------||


INTRO:   riff 1

REFRAIN: riff 2
         riff 3 (2x)

VERSE:   riff 4
         riff 5

REFRAIN: riff 6
         riff 3 (2x)

VERSE:   riff 5 (2x)

REFRAIN: riff 6
         riff 3 (2x)

OUTRO:   riff 1 (2x)
         riff 3 (5x)
Добавлено: 10.06.2013
Другие материалы по этой песне:
  • Аккорды и текст

Страница создана 10.06.2013
http://primanota.ru/blood-hound-gang/fire-water-burn-chords.htm
Привет, Гость.
Предлагаем пройти революционный курс по гитаре.
Подарок от PrimaNota.Ru, забирай!