PrimaNota.ru - самый крупный в мире бесплатный архив песенных текстов, аккордов, табулатур и нот


Blood For Blood - Revenge On Society - текст песни, таба, бас-таба, видео

Регистрация Запомнить меня
Войти через:  Facebook Google Twitter Vk Yandex Mail.ru

Blood For Blood - Revenge On Society - текст песни, таба, бас-таба, видео

Печатать
Просмотров: 194
Intro:
e|---------------------------------------------------------------------|
B|---------------------------------------------------------------------|
G|---------------------------------------------------------------------|
D|0--------------00000-----1010-----000000-----1110-------0------------|
A|0--------------00000-----1010-----000000-----1110-------0------------|
D|0--------------00000-----1010-----000000-----1110-------0------------|


Verse:
e|-----------------------------------------------------------------------|
B|-----------------------------------------------------------------------|
G|-----------------------------------------------------------------------|
D|00-036-600-036-600-036-011-133-----------0-----------------------------|
A|00-036-600-036-600-036-011-133-----------0-----------------------------|
D|00-036-600-036-600-036-011-133-----------0-----------------------------|

Добавлено: 03.05.2012
Другие материалы по этой песне:
  • Аккорды и текст

Страница создана 03.05.2012
http://primanota.ru/blood-for-blood/revenge-on-society-chords.htm
Привет, Гость.
Предлагаем пройти революционный курс по гитаре.
Подарок от PrimaNota.Ru, забирай!