PrimaNota.ru - самый крупный в мире бесплатный архив песенных текстов, аккордов, табулатур и нот


Blood Ceremony - The Magician - бас-таба, видео

Регистрация Запомнить меня
Войти через:  Facebook Google Twitter Vk Yandex Mail.ru

Blood Ceremony - The Magician - бас-таба, видео

Печатать
Просмотров: 75
Авторы: Alia O'Brien, Sean Kennedy

Tabbed by: 6METAL6BASSIST6 
E-mail: petergriffinav@gmail.com

Tuning: EADG

G|--|
D|--|
A|5h|
E|--|

G|------------------------------------------------------------------------------------------------|
D|----------------------------------------------------------------------------------------------5h|
A|7---------------------5h7---------------------5h7---------------------5h7-----------------------|
E|------------------------------------------------------------------------------------------------|

G|----------------------------------------------------------------------------5-------------------|
D|7---------------------5h7---------------------5h7---------------------5h7-----7-----------------|
A|----------------------------------------------------------------------------------------------5h|
E|------------------------------------------------------------------------------------------------|

G|------------------------------------------------------------------------------------------------|
D|----------------------------5-----------------------------------------------5-----/-9-----7---5h|
A|7---------------------5h7-----7---------------5h7---------------------5h7-----7-----------------|
E|------------------------------------------------------------------------------------------------|

G|----------------------------5-----------------------------------------------5-------9-----5-----|
D|7---------------------5h7-----7---------------5h7---------------------5h7-----7-----------------|
A|----------------------------------------------------------------------------------------------5h|
E|------------------------------------------------------------------------------------------------|

G|------------------------------------------------------------------------------------------------|
D|----------------------------5-----------------------------------------------5-----/-9-----7---5h|
A|7---------------------5h7-----7---------------5h7---------------------5h7-----7-----------------|
E|------------------------------------------------------------------------------------------------|

G|----------------------------5-----------------------------------------------5-----/-9---7-5-----|
D|7---------------------5h7-----7---------------5h7---------------------5h7-----7-----------------|
A|------------------------------------------------------------------------------------------------|
E|------------------------------------------------------------------------------------------------|

G|------------------------------------------------------------------------------------------------|
D|9-7-5-7-5-4-5-4---4-----------------------------------------------------------------------------|
A|----------------7---7-5-------------------------------------------------------------------------|
E|------------------------0-----0-0-0-0-----0-0-0-2-----2-2-2-2-----2-2-2-3-----3-3-3-3-----3-3-3-|

G|----------------------------------------------------------------------------------------|
D|----------------------------------------------------------------------------------------|
A|------------------------0-h-2---2---2---2---2---2---2---2-------------------------------|
E|2-----2-2-2-2-----2---------------------------------------------------------------------|

1:03

G|--------------------------------------------------------|
D|--------------------------------------------------------|
A|--------------------------------------------------------|
E|0-------3-------5h6-5-0-1---0-------3-------5h6-5-0-1---|

G|------------------------------------------------------------|
D|------------------------------------------------------------|
A|--------------------------------------------3-------2-------|
E|0-------3-------5h6-5-0-1---0-------3-----------------------|

G|------------------------------------------------------------|
D|------------------------------------------------------------|
A|------------------------------------------------------------|
E|0-------------------------------0-------3-------5h6-5-0-1---|

G|------------------------------------------------------------|
D|------------------------------------------------------------|
A|------------------------------------------------------------|
E|0-------3-------5h6-5-0-1---0-------------------------------|

G|--------------------------------------------------------|
D|--------------------------------------------------------|
A|--------------------------------------------------------|
E|0-------3-------5h6-5-0-1---0-------3-------5h6-5-0-1---|

G|----------------------------------------------------------------|
D|----------------------------------------------------------------|
A|------------------------0---1---2-------2-------2---0-----------|
E|0-------------------3-------------------------0---------3---2---|

G|----------------------------------------------------------------|
D|----------------------------------------------------------------|
A|--------------/-5---5-------5---------------3---2-------3-2-----|
E|0-----------3-------------------3-------3-------------------3---|

Repeat from 1:03







2:15

G|----------------------------------------------------------------|
D|----------------------------------------------------------------|
A|0-------0-------0-------0---3---2-------2-------2---0---2---5---|
E|----------------------------------------------------------------|

G|----------------------------------------------------------------|
D|----------------------------2-----------------------------------|
A|3-------3-------3---2---3-------2-------2-----------------------|
E|------------------------------------------------3-------2h3-2---|

G|----------------------------------------------------------------|
D|----------------------------------------------------------------|
A|------------------------0---2---3-------3-------3---3-------3---|
E|0-------0-------0---3-------------------------------------------|

G|----------------------------------------------------------------|
D|--------------------4-------------------------------------------|
A|2-------2-------2-----------2---2-------2-------2---------------|
E|--------------------------------------------------------3-------|

G|----------------------------------------------------------------|
D|----------------------------------------------------5-----------|
A|------------------------0---2---3-------3-------3-----------3---|
E|0-------0-------0---3-------------------------------------------|

G|----------------------------------------------------------------|
D|--------------------4-----4-------------------------------------|
A|2-------2-------2---------------2-------2-------2---------------|
E|--------------------------------------------------------3-------|

G|--------------------------------|
D|--------------------------------|
A|--------------------------------|
E|0-------------------------------|

2:50

G|--------------------------------------------------------|
D|--------------------------------------------------------|
A|--------------------------------------------------------|
E|0-------3-------5h6-5-0-1---0-------3-------5h6-5-0-1---|

G|------------------------------------------------------------|
D|------------------------------------------------------------|
A|--------------------------------------------3-------2-------|
E|0-------3-------5h6-5-0-1---0-------3-----------------------|

G|------------------------------------------------------------|
D|------------------------------------------------------------|
A|------------------------------------------------------------|
E|0-------------------------------0-------3-------5h6-5-0-1---|

G|------------------------------------------------------------|
D|------------------------------------------------------------|
A|------------------------------------------------------------|
E|0-------3-------5h6-5-0-1---0-------------------------------|

G|--------------------------------------------------------|
D|--------------------------------------------------------|
A|--------------------------------------------------------|
E|0-------3-------5h6-5-0-1---0-------3-------5h6-5-0-1---|

G|----------------------------------------------------------------|
D|----------------------------------------------------------------|
A|------------------------0---1---2-------2-------2---0-----------|
E|0-------------------3-----------------------------------3---2---|

G|----------------------------------------------------------------|
D|----------------------------------------------------------------|
A|--------------/-5---5-------5-\-------------3---2-------3-2-----|
E|0-----------3-------------------3-------3-------------------3---|

3:25

G|----------------------------------------------------------------|
D|----------------------------------------------------------------|
A|0-------0-------0-------0---3---2-------2-------2---0---2---5---|
E|----------------------------------------------------------------|

G|----------------------------------------------------------------|
D|--------------------2-------------------------------------------|
A|3-------3-------3-----------3---2-------2-----------------------|
E|------------------------------------------------3-------2h3-2---|

G|----------------------------------------------------------------|
D|----------------------------------------------------5-----------|
A|------------------------0---2---3-------3-------3-----------3---|
E|0-------0-------0---3-------------------------------------------|

G|----------------------------------------------------------------|
D|--------------------4-------------------------------------------|
A|2-------2-------2---------2-2---2-------2-------2---------------|
E|--------------------------------------------------------3-------|

G|----------------------------------------------------------------|
D|----------------------------------------------5-----------------|
A|------------------------0---2---3-------3-------3---3-------3---|
E|0-------0-------0---3-------------------------------------------|

G|----------------------------------------------------------------|
D|--------------------4-------4-----------------------------------|
A|2-------2-------2---------------2-------2-------2---------------|
E|--------------------------------------------------------3-------|

3:58

G|----------------------------------------------------------------|
D|----------------------------------------------------5-----------|
A|------------------------0---2---3-------3-------3-----------3---|
E|0-------0-------0---3-------------------------------------------|

G|----------------------------------------------------------------|
D|--------------------4-----4-------------------------------------|
A|2-------2-------2---------------2-------2-------2---------------|
E|--------------------------------------------------------3-------|

G|----------------------------------------------------------------|
D|----------------------------------------------------5-------5---|
A|------------------------0---2---3-------3-------3---------3-----|
E|0-------0-------0---3-------------------------------------------|

G|----------------------------------------------------------------|
D|--------------------4-------4-----------------------------------|
A|2-------2-------2---------2-----2-------2-------2---------------|
E|--------------------------------------------------------3-------|

G|----------------------------------------------------------------|
D|----------------------------------------------------------------|
A|------------------------0---2---3-------3-------3---3-------3---|
E|0-------0-------0---3-------------------------------------------|

4:25

G|----------------------------------------------------------------|
D|----------------------------------------------------------7-----| x3
A|2---2---2-----------5-----5-----2---2---2-----------5-----------|
E|----------------------------------------------------------------|

G|----------------------------------------------------------------|
D|----------------------------------------------------------------|
A|2---2---2-----------5-----5-----2---2---2-----------9-----8-----|
E|----------------------------------------------------------------|

G|----------------------------------------------------------------|
D|--------------------7-----5-------------------------------------|
A|7---7---7-----------------------7---7---7-----------0-----1-----|
E|----------------------------------------------------------------|

D|----------------------------------------------------------------|
D|----------------------------------------------------------------|
A|2---2---2-----------5-----5-----2---2---2-------2-----3-----4---|
E|----------------------------------------------------------------|

G|----------------------------------------9-----------------------|
D|--------7-------7---7-------7---------------------/-9-----7---/-|
A|5-------------5---------5-------7-------------5-7-----------7---|
E|----------------------------------------------------------------|

5:02

G|----------------------7-----------------------------------------|
D|9---7-----------7---------9-7-/-9---7-------------------------/-|
A|--------9---7-9---9---------------------9---8-----8---8-8-7-----|
E|----------------------------------------------------------------|

G|------------------7-----9---7-----------------------------------|
D|9---7-----/-9-------------------9-----7-------------------------|
A|--------9-------------------------------------9-----8-----7-----|
E|----------------------------------------------------------------|

G|----------------------------------------------------------------|
D|----------------------------------------------------------------|
A|5-----0-----------------------2---------------------------------|
E|--------------2-------------------------------------------------|







5:54

G|------------------------------------------------------------------------------------------------|.
D|------------------------------------------------------------------------------------------------|.
A|2-----------------------------4-----5-----------------------------------------------------------|.
E|------------------------------------------5-----4-----------------------3-----------------------|.
                                                                                                   . x4
G|------------------------------------------------------------------------------------------------|.
D|------------------------------------------------------------------------------------------------|.
A|------------------------------------------------------------------------5-----------4-----------|.
E|2-----------------------------------------------0-----------------------------------------------|.

G|------------------------------------------------------------------------------------------------|
D|------------------------------------------------------------------------------------------------|
A|2-----------------------------4-----5-----------------------------------------------------------|
E|------------------------------------------5-----4-----------------------3-----------------------|

G|------------------------------------------------------------------------------------------------|
D|------------------------------------------------------------------------------------------------|
A|------------------------------------------------------------------------5-----------0-----------|
E|2-----------------------------------------------0-----------------------------------------------|

G|------------------------------------------------------------------------------------------------|
D|------------------------------------------------------------------------------------------------|
A|2-----------------------------------------------------------------------------------------------|
E|------------------------------------------------------------------------------------------------|







7:39           until fadeout.

G|--------7-----------------------7-----------11----------7-----------11----------7---------------|
D|----9-------9---------------9-------9---------------9-------9---------------9-------9-----------|
A|9---------------9-------9---------------9-------9---------------9-------9---------------9-------|
E|------------------------------------------------------------------------------------------------|

G|--------7-----------11----------7-----------------------7-----------11----------7-----------11--|
D|----9-------9---------------9-------9---------------9-------9---------------9-------9-----------|
A|9---------------9-------9---------------9-------9---------------9-------9---------------9-------|
E|------------------------------------------------------------------------------------------------|

G|--------7-----------------------7-----------11----------7-----------11----------7---------------|
D|----9-------9---------------9-------9---------------9-------9---------------9-------9-----------|
A|9---------------9-------9---------------9-------9---------------9-------9---------------9-------|
E|------------------------------------------------------------------------------------------------|
Добавлено: 18.05.2016
Другие материалы по этой песне:
  • Аккорды и текст

Страница создана 18.05.2016
http://primanota.ru/blood-ceremony/magician-chords.htm
Привет, Гость.
Предлагаем пройти революционный курс по гитаре.
Подарок от PrimaNota.Ru, забирай!