PrimaNota.ru - самый крупный в мире бесплатный архив песенных текстов, аккордов, табулатур и нот


Blood Ceremony - Faunus - бас-таба, видео

Регистрация Запомнить меня
Войти через:  Facebook Google Twitter Vk Yandex Mail.ru

Blood Ceremony - Faunus - бас-таба, видео

Печатать
Просмотров: 73
Авторы музыки: Alia O'Brien, Sean Kennedy, Lucas Gadke, Michael Carrillo

Tabbed by: 6METAL6BASSIST6
E-mail: petergriffinav@gmail.com

Tuning: EADG

G|----------------------------------------------------------------|
D|7---------------5-----------3---------------------------------/-|
A|------------------------------------3---4---5-------3---4---5---|
E|----------------------------------------------------------------|

G|------------------------------------10------7---5---------------|
D|7---------------5-----------3-----------------------7---5---6---|
A|----------------------------------------------------------------|
E|----------------------------------------------------------------|

G|----------------------------------------------------------------|
D|7---------------5-----------3---------------------------------/-|
A|------------------------------------3---4---5-------3---4---5---|
E|----------------------------------------------------------------|

G|------------5---------------------------------------------------|
D|7---------------5-----------3-------------------3---3---------/-|
A|------------------------------------3---4---5------------5------|
E|----------------------------------------------------------------|

G|------------5---------------------------------------------------|
D|7---------------5-----------3---------------------------------/-|
A|------------------------------------3---4---5-------3---4---5---|
E|----------------------------------------------------------------|

G|----------------5---------/-7-------5---------------------------|
D|7-----------------------3--------------------7------5-------6---|
A|----------------------------------------------------------------|
E|----------------------------------------------------------------|

G|----------------------------------------------------------------|
D|7---------------5-----------3-------------------3-------------/-|
A|------------------------------------3---4---5-----------5-------|
E|----------------------------------------------------------------|

G|------------5-------5-------------------------------------------|
D|7-----------------------5---3-------------------3-------5-----/-|
A|------------------------------------3---4---5-------------------|
E|----------------------------------------------------------------|

G|------------------------5---------------------------------------|
D|7---------------5-----------3---------------------------------/-|
A|------------------------------------3---4---5-------3---4---5---|
E|----------------------------------------------------------------|

G|----------------5-----------------/-7-------5-------------------|
D|7---------------------------3-------------------7-------5-------|
A|----------------------------------------------------------------|
E|----------------------------------------------------------------|

0:39

G|----------------------------------------------------------------|
D|----------------------------------------------------------------|
A|------------------------3-------------------------------3-------|
E|1-------------------------------3-------------------------------|

G|------------------------------------5---------------------------|
D|----------------7-----------5---------------7-------5---7-------|
A|0---------------------------------------------------------------|
E|----------------------------------------------------------------|

G|----------------------------------------------------------------|
D|----------------------------------------------------------------|
A|------------------------3-------------------------------3-------|
E|1-------------------------------3-------------------------------|

G|----------------------------------------------------------------------------|
D|----------------------------------------------------------------------------|
A|0---------------------------------------------------------------------------|
E|----------------------------------------------------------------------------|

0:55

G|----9-----------9-----------9-------7-----5---------9-----------9-----------9-------7-----5-----|
D|7-----7-----7-----7-----7-----7---------7-------7-----7-----7-----7-----7-----7---------7-------| x3
A|------------------------------------------------------------------------------------------------|
E|------------------------------------------------------------------------------------------------|

G|----9-----------9-----------9-------7-----5---------9-----------9-------------------------------|
D|7-----7-----7-----7-----7-----7---------7-------7-----7-----7-----7-----3-----4-----5-----6-----|
A|------------------------------------------------------------------------------------------------|
E|------------------------------------------------------------------------------------------------|

G|----9-----------9-----------9-------7-----5---------9-----------9-----------9-------7-----5-----|
D|7-----7-----7-----7-----7-----7---------7-------7-----7-----7-----7-----7-----7---------7-------|
A|------------------------------------------------------------------------------------------------|
E|------------------------------------------------------------------------------------------------|

G|----9-----------9-----------9-------7-----5---------9-----------9-------------------------------|
D|7-----7-----7-----7-----7-----7---------7-------7-----7-----7-----7-----7-----5-----4-----3-----|
A|------------------------------------------------------------------------------------------------|
E|------------------------------------------------------------------------------------------------|

1:35

G|------------------------------------------------------------------------------------------------|
D|----------------------------------------------------------------------------------------7-9-----|
A|5-7-7-7---7-5-7-7-7-----5-7-7-7---7-7---5-2-----5-7-7-7-----5-7-7-7---7-5-7-7-7---7-7-----------|
E|------------------------------------------------------------------------------------------------|

G|------------------------------------------------------------------------------------------------|
D|------------------------------------------------------------------------4-----5-----6-----9-----|
A|5-7-7-7-----5-7-7-7---7-5-7-7-7---5-7---5-2-----5-7-7-7-----5-7-7-7---7-------------------------|
E|------------------------------------------------------------------------------------------------|

1:47

G|----------------------------------------------------------------|
D|7---------------5-----------3-----------------------3-----------|
A|------------------------------------3---4---5---5-------5-------|
E|----------------------------------------------------------------|

G|------------------------------------5---------------------------|
D|7---------------5-----------3---------------7---5---6---7-------|
A|----------------------------------------------------------------|
E|----------------------------------------------------------------|

G|--------------------------------------------------------------/-|
D|7---------------5-----------3-------------------3---------------|
A|------------------------------------3---4---5-----------5-------|
E|----------------------------------------------------------------|

G|7-------5---------------------------5---------------------------|
D|------------7---5---3---5---7---------------7-------5-----------|
A|----------------------------------------------------------------|
E|----------------------------------------------------------------|

3:03

G|----------------------------------------------------------------|
D|----------------------------------------------------------------|
A|------------------------3-------------------------------3-------|
E|1-------------------------------3-------------------------------|

G|------------------------------------5---------------------------|
D|----------------7-----------5---------------7-------5---7-------|
A|----------------------------------------------------------------|
E|5---------------------------------------------------------------|

G|----------------------------------------------------------------|
D|----------------------------------------------------------------|
A|------------------------3-------------------------------3-------|
E|1-------------------------------3-------------------------------|

G|----------------------------------------------------------------|
D|----------------------------------------------------------------|
A|----------------------------------------------------------------|
E|0---------------------------------------------------------------|
Добавлено: 06.10.2015
Другие материалы по этой песне:
  • Аккорды и текст

Страница создана 06.10.2015
http://primanota.ru/blood-ceremony/faunus-chords.htm
Привет, Гость.
Предлагаем пройти революционный курс по гитаре.
Подарок от PrimaNota.Ru, забирай!