PrimaNota.ru - самый крупный в мире бесплатный архив песенных текстов, аккордов, табулатур и нот


Blood Ceremony - Ballad Of The Weird Sisters - бас-таба, видео

Регистрация Запомнить меня
Войти через:  Facebook Google Twitter Vk Yandex Mail.ru

Blood Ceremony - Ballad Of The Weird Sisters - бас-таба, видео

Печатать
Просмотров: 166
Уроки эстрадного вокала в Санкт-Петербурге
Авторы музыки: Sean Kennedy
Авторы текста: Sean Kennedy
Tabbed by: 6METAL6BASSIST6 
E-mail: petergriffinav@gmail.com

Tuning: EADG

G|----------------------------------------------------------------|
D|----------------------------------------------------------------| x2
A|0-------2-------3-----3-5-7-7-------------0-------------0-2-----|
E|--------------------------------1---1---3-------3---3-----------|

G|----------------------------------------------------------------|
D|----------------------------------------------------------------|
A|0---------------------------------------------------------------|
E|----------------------------------------------------------------|

G|--------------------------------|
D|------------7-7-7-7-7-7-7-5-----|
A|----------------------------7---|
E|--------------------------------|

G|----------------------------------------------------------------|
D|--------7-----7/10--7---7---5-7---5-----------------------------|
A|0-----7-----------------------------7-/-7---5---3---2-----------|
E|--------------------------------------------------------3-------|

0:28

G|----------------------------------------------------------------|
D|--------------------------------7-----------------------7---6---|
A|0---------------------------7-----------------------------------|
E|----------------------------------------------------------------|

G|----------------------------------------------------------------|
D|5---------------------------------------5---5---7-------10--9---|
A|--------------------------------3---3---------------------------|
E|----------------------------------------------------------------|

G|----------------------------------------------------------------|
D|7-------------------------------7-----------------------7---6---|
A|----------------------------7-----------------------------------|
E|----------------------------------------------------------------|

G|----------------------------------------------------------5-----|
D|5---------------------------------------------------7/5---------|
A|----------------------------5-\-3---3-----------0-------7-------|
E|----------------------------------------3---3-------------------|

G|----------------------------------------------------------------|
D|7-------7-----7/10--7---7-----7-----5---------------------------|
A|------7---------------------0-----------7---5-/-3---2-----------|
E|--------------------------------------------------------3-------|

0:58

G|----------------------------------------------------------------|
D|--------------------------------7-----------------------7---6---|
A|0---------------------------7-----------------------------------|
E|----------------------------------------------------------------|

G|----------------------------------------------------------------|
D|5---------------------------------------5---5---7-------10--9---|
A|----------------------------5---3---3---------------------------|
E|----------------------------------------------------------------|

G|----------------------------------------------------------------|
D|7-------------------------------7-----------------------7---6---|
A|----------------------------7-----------------------------------|
E|----------------------------------------------------------------|

G|--------------------------------------------------------9-------|
D|5---------------------------------------------------7\5-----10--|
A|----------------------------5-\-3---3-----------0---------------|
E|----------------------------------------3---3-------------------|

1:23

G|----------------------------------------------------------------|
D|----------------------------------------------------------------| x4
A|0-------2-------3-----3-5-7-7-------------0-------------0-2-----|
E|--------------------------------1---1---3-------3---3-----------|

G|----------------------------------------------------------------|
D|----------------------------------------------------------------|
A|0---------------------------------------------------------------|
E|----------------------------------------------------------------|

G|----------------------------------------------------------------|
D|----------------------------------------------------------------|
A|0---0---------------------------3---3---3---5-6-7-7-7-7-7-5-2---|
E|----------------------------------------------------------------|

G|----------------------------------------------------------------|
D|--------7-----9-10--9---7-----7---5-----------------------------|
A|0-----7---------------------0-------7---6---5-/-3---2-----------|
E|--------------------------------------------------------3-------|

2:05

G|----------------------------------------------------------------|
D|--------------------------------7-----------------------7---6---|
A|0---------------------------7-----------------------------------|
E|----------------------------------------------------------------|

G|----------------------------------------------------------------|
D|5---------------------------------------5---5---7-------10--9---|
A|----------------------------5---3---3---------------------------|
E|----------------------------------------------------------------|

G|----------------------------------------------------------------|
D|7-------------------------------7-----------------------7---6---|
A|----------------------------7-----------------------------------|
E|----------------------------------------------------------------|

G|----------------------------------------------------------5-----|
D|7---------------------------------------------------7/5---------|
A|----------------------------5-\-3---3-----------0-------7-------|
E|----------------------------------------3---3-------------------|

G|----------------------------------------------------------------|
D|7-------7-----9-10--9---7---5-7---7-10--9---7---5-----------5---|
A|------7---------------------------------------------7---5-------|
E|----------------------------------------------------------------|

2:35

G|----------------------------------------------------------------|
D|7-------------------------------7-----------------------7---6---|
A|----------------------------7-----------------------------------|
E|----------------------------------------------------------------|

G|----------------------------------------------------------------|
D|5---------------------------------------5---5---7-------10--9---|
A|----------------------------5---3---3---------------------------|
E|----------------------------------------------------------------|

G|----------------------------------------------------------------|
D|7-------------------------------7-----------------------7---6---|
A|----------------------------7-----------------------------------|
E|----------------------------------------------------------------|

G|--------------------------------------------------------9-------|
D|5---------------------------------------------------7\5-----10--|
A|----------------------------5-\-3---3-----------0---------------|
E|----------------------------------------3---3-------------------|

3:00

G|----------------------------------------------------------------|
D|----------------------------------------------------------------| x4
A|0-------2-------3-----3-5-7-7-------------0-------------0-2-----|
E|--------------------------------1---1---3-------3---3-----------|

G|----------------------------------------------------------------|
D|----------------------------------------------------------------|
A|0---------------------------------------------------------------|
E|----------------------------------------------------------------|

G|----------------------------------------------------------------|
D|----------------------------------------------------------------|
A|0---0---------------------------3---3---3---5---7-7-7-7-7-5-2---|
E|----------------------------------------------------------------|

G|------------------9---------------------------------------------|
D|--------7-----9-10--10--------9---9-7---7---5-------------------|
A|0-----7-----------------9---7-----------------7---5-3---2-------|
E|------------------------------------------------------------3---|

G|--------------5-------------5-7-9---7---5-----------------------|
D|--------7-5-7-----7-5---7-----------------7---5-----------------|
A|0-----7-------------------------------------------7-5---3-------|
E|----------------------------------------------------------------|

3:46

G|----------------------------------------------------------------|
D|--------------------------------7-----------------------7---6---|
A|0---------------------------7-------------------------7---------|
E|----------------------------------------------------------------|

G|----------------------------------------------------------------|
D|5---------------------------------------5---5---7-------10--9---|
A|----------------------------5---3---3---------------------------|
E|----------------------------------------------------------------|

G|----------------------------------------------------------------|
D|7-------------------------------7-----------------------7---6---|
A|----------------------------7-----------------------------------|
E|----------------------------------------------------------------|

G|--------------------------------------------------------9-------|
D|5---------------------------------------------------7\5-----10--|
A|----------------------------5-\-3---3-----------0---------------|
E|----------------------------------------3---3-------------------|

G|------------------9---------------------------------------------|
D|--------7-----9-10----9---5-7-------7---7-5-----7---7---5-------|
A|0-----7---------------------------7---------7---------------7---|
E|----------------------------------------------------------------|

G|--------------------5---7/9-9-9-9-9-7-7-5-5---------------------|
D|----7---7-5---5---7-------------------------7-7-7-5-------------|
A|------------7---------------------------------------7---3---2---|
E|----------------------------------------------------------------|

4:21

G|----------------------------------------------------------------|
D|----------------------------------------------------------------| x4
A|0-------2-------3-----3-5-7-7-------------0-------------0-2-----|
E|--------------------------------1---1---3-------3---3-----------|

G|------------------------------------------------------------|
D|------------------------------------------------------------|
A|------------------------------------------------------------|
E|------------------------------------------------------------|

G|------------------------------------------------------------|
D|------------------------------------------------------------|
A|------------------------------------------------------------|
E|------------------------------------------------------------|

G|5-----4-----------------------------------------------------|
D|------------7---------------7-----5-------------------------|
A|----------------------------------------7-------------------|
E|------------------------------------------------------------|

G|5-----7-----9---------------9-----7-----5-------------------|
D|------------------------------------------------------------|
A|------------------------------------------------------------|
E|------------------------------------------------------------|

5:08

G|----------------------------------------------------------------|
D|--------------------------------3-2---3-2-----------------------|
A|0-----0-0---------0---0-0-------------------3-----2-2-3-3-2-2---|
E|----------------3-----------------------------------------------|

G|----------------------------------------------------------------|
D|--------7-----7-5-7-7---7-------3-2---3-2-----------------------|
A|0-----0-------------------------------------3-----2-2-3-3-2-2---|
E|----------------------------------------------------------------|

G|--------------------5-------------------------------------------|
D|--------7-----5-5-7-----7-------3-2---3-2-----------------------|
A|0-----0-------------------------------------3-----2-2-3-3-2-2---|
E|----------------------------------------------------------------|

G|----------------------------------------------------------------|
D|--------------------------------3-2---3-2-----------------------|
A|0-----0-0---------0-3---0-------------------3-----2-2-3-3-2-2---|
E|--------------3-3-----------------------------------------------|

5:31

G|----------------------------------------------------------------|
D|----------------------------------------------------------------| x2
A|0-------2-------3-------5-7-7-------------0-------------0-2-----|
E|--------------------------------1---1---3-------3---3-----------|

G|----------------------------------------------------------------|
D|----------------------------------------------------------------|
A|0-------2-------3-----3-5-7-7-------------0-------------0-2-----|
E|--------------------------------1---1---3-------3---3-----------|

G|------------------------------------------------5-----7-----9---------------|
D|----------------------------------------------------------------------------|
A|0-------2-------3-----3-5-7-7-------------0---------------------------------|
E|--------------------------------1---1---3-----------------------------------|
Добавлено: 06.10.2015
Другие материалы по этой песне:
  • Аккорды и текст

Страница создана 06.10.2015
http://primanota.ru/blood-ceremony/ballad-of-weird-sisters-chords.htm
Привет, Гость.
Предлагаем пройти революционный курс по гитаре.
Подарок от PrimaNota.Ru, забирай!