PrimaNota.ru - самый крупный в мире бесплатный архив песенных текстов, аккордов, табулатур и нот


Blof - Niets Dan Dit - текст песни, таба, видео

Регистрация Запомнить меня
Войти через:  Facebook Google Twitter Vk Yandex Mail.ru

Blof - Niets Dan Dit - текст песни, таба, видео

Печатать
Просмотров: 174
Gebruikte accoorden:

   EADGBE           EADGBE        EADGBE
E5 X79900     Dsus2 XX0230     C  X32010
D5 X57700     F     X33210     F* 133211
C5 X35500     G     X55430     Am X02210
B5 X24400     E     022000     Em 022100


 1 INTRO)
 E5 - D5 - C5 - B5


 2 COUPLET)
 / E5 /                                    / D5 /
 "Doe je jas uit.                  Maak je haren los."

 / Dsus2 /                                 / E5 /
                   "Kom heel stil naast me liggen."

 / E5 /                                    / D5 /
 "Richt je op.                     Raak me even aan."

 / Dsus2 /                                  / E5 /
                         "Bijna alles is te veel nu."

 / E5 /      / D5 /           / C5 /
                        "Is teveel nu."


 3 REFREIN)
         / E5 /            / D5 /
 "Ik ben niets         dan dit."

         / C5 /            / B5 /     / C5 /     / D5 /
 "Ik ben niets         dan dit."

         / E5 /            / G /
 "Ik ben niets         dan dit."

          / F /
 "Wat jij voor je ziet."


 4 BRUG)
 / E /           / F /            / E /                      / F /
       "Wees nog even stil.              Wees nog even zoals nu."

    F                    C
 E-----------------------0---
 B------1--------1-------1---
 G--0H2---2--0H2---2-----0---
 D-------------------3---2---
 A-----------------------3---
 E-----------------------X---

 / C /                / F /      / Am /                          / F* /
       "Wees nog even hier.              En doe dan maar de deur dicht."


[solo]

E|---------------------------------------------------------------------|
B|---------------------------------------------------------------------|
G|-----------------------------------------------9-9-9-7----7----------|
D|------6-7-9---6-6-7-6-----6-7-9---9-9-7-9-10-----------10----7-------|
A|--7-9-----------------7-9--------------------------------------10-9--|
E|---------------------------------------------------------------------|
 
E|---------------------------------------------------------------------|
B|---------------------------------------------------------------------|
G|------6-7-9---6-6-7-6-----6-7-9---6-6-7-6-5---9----------------------|
D|--7-9-----------------7-9-------------------7---10-7-----------------|
A|-----------------------------------------------------8-7-------------|
E|---------------------------------------------------------------------|


 5 EINDE)
 Eindig met het laatste refrein met een Em


TEKST:

Doe je jas uit.
Maak je haren los.
Kom heel stil naast me liggen.

Richt je op.
Raak me even aan.
Bijna alles is teveel nu.
Is te veel nu.

Ik ben niets dan dit.
Ik ben niets dan dit.
Ik ben niets dan dit.
Wat jij voor je ziet.

Neem de klok mee.
Zet hem ongelijk.
Laat de wijzers draaien.

Pak je schoenen.
Zet ze uit de pas.
Ik zal de doos bewaren.
Tot ie vol is.

Ik ben niets dan dit.
Ik ben niets dan dit.
Ik ben niets dan dit.
Wat jij voor je ziet.

Wees nog even stil.
Wees nog even zoals nu.
Wees nog even hier.
En doe dan maar de deur dicht.

Ik ben niets dan dit.
Ik ben niets dan dit.
Ik ben niets dan dit.
Wat jij voor je ziet.
Добавлено: 23.09.2013
Другие материалы по этой песне:
  • Аккорды и текст

Страница создана 05.06.2012
http://primanota.ru/blof/niets-dan-dit-chords.htm
Привет, Гость.
Предлагаем пройти революционный курс по гитаре.
Подарок от PrimaNota.Ru, забирай!