PrimaNota.ru - самый крупный в мире бесплатный архив песенных текстов, аккордов, табулатур и нот


Blockhead - Tricky Turtle - бас-таба, видео

Регистрация Запомнить меня
Войти через:  Facebook Google Twitter Vk Yandex Mail.ru

Blockhead - Tricky Turtle - бас-таба, видео

Печатать
Просмотров: 115
Уроки эстрадного вокала в Санкт-Петербурге
G|-------------------------------------------------8-|
D|---------8h10--10p8-------------------------8h10---|
A|----8h10-----------10p8-6h8-6-------6h8-8h10-------|
E|-8----------------------------8p6-8----------------|
        intro

G|8h10-8--------------------------------------------------------8-|
D|--------10p8-10-10p8----8h10p8---------------------------8h10---|
A|---------------------10--------10p8-6h8-6-------6h8-8h10--------|
E|------------------------------------------8p6-8-----------------|


G|-----------------------------------------------------------------|
D|-----------------------------10---------------------------10-----|
A|--------------------------10----------------------------------10-|
E|-8---8-8---8-8---8-8----8--------8---8-8---8-8---8-8----8--------|
Добавлено: 26.01.2014
Другие материалы по этой песне:
  • Аккорды и текст

Страница создана 26.01.2014
http://primanota.ru/blockhead/tricky-turtle-chords.htm
Привет, Гость.
Предлагаем пройти революционный курс по гитаре.
Подарок от PrimaNota.Ru, забирай!