PrimaNota.ru - самый крупный в мире бесплатный архив песенных текстов, аккордов, табулатур и нот


Bloc Party - Where Is Home - текст песни, таба, видео

Регистрация Запомнить меня
Войти через:  Facebook Google Twitter Vk Yandex Mail.ru

Bloc Party - Where Is Home - текст песни, таба, видео

Печатать
Просмотров: 187
Where Is Home?
Bloc Party
The Modern Hype

This is at the very least, a good sounding unmastered version. Only little bits of guitar in the song.
Weird effects and notes, not sure if it's guitar or samples or what

2:07
Guitar One (I'm assuming Kele would play this part)
e|------------------------------------|
B|------------------------------------|
G|------------------------------------|
D|------------------------------------|
A|------------------------------------|
E|--66-99-88-66-11-11-99-11-11-13/----|

*I prefer that way, but you could also play it...

e|-------------------------------|
B|-------------------------------|
G|-------------------------------|
D|-------------------------------|
A|--------------66----66-8/------|
E|--66-99-88-66----99------------|

This riff ends the second and final chorus
e|-------------------------------|
B|-------------------------------|
G|-------------------------------|
D|-------------------------------|
A|--------------6-4-6-4-9-8-9/11-|
E|--66-99-88-66------------------|


Guitar Two (Russell)
e|---------------------------------------------------------|
B|---------------------------------------------------------|
G|---------------------------------------------------------|
D|---------------------------------------------------------|
A|--13~--8~---9~---8~---------11~--8~---9~---8~------------|
E|-----------------------6~-----------------------6~-------|


3:52 - 4:40 (Russell) tremelo - most likely puts into a loop using delay pedal
e|----////////////20*****--------|
B|-------------------------------|
G|-------------------------------|
D|-------------------------------|
A|-------------------------------|
E|-------------------------------|

3:56 ..tremelo picking again
e|-------------------------------|
B|-------------------------------|
G|-----18*--17*--15*--13*--------|
D|-------------------------------|
A|-------------------------------|
E|-------------------------------|

Then the chorus riff returns with both guitars playing, 3 guitars going counting 
riff on delay.

Check us out at http://modernhype.blogspot.com
Добавлено: 02.03.2012
Другие материалы по этой песне:
  • Аккорды и текст

Страница создана 02.03.2012
http://primanota.ru/bloc-party/where-is-home-chords.htm
Привет, Гость.
Предлагаем пройти революционный курс по гитаре.
Подарок от PrimaNota.Ru, забирай!