PrimaNota.ru - самый крупный в мире бесплатный архив песенных текстов, аккордов, табулатур и нот


Bloc Party - Waiting For The 7 18 - текст песни, таба, бас-таба, видео

Регистрация Запомнить меня
Войти через:  Facebook Google Twitter Vk Yandex Mail.ru

Bloc Party - Waiting For The 7 18 - текст песни, таба, бас-таба, видео

Печатать
Просмотров: 218
Уроки эстрадного вокала в Санкт-Петербурге
Waiting For The 7:18
Bloc Party
A Weekend In The City

Tabbed By Jim Files (jimfiles@iprimus.com.au)

Forgive me if this tab is a bit hard to understand but it was tricky figure out and has 
few different little parts often overlapping
so i did my best. Nothing else out there for this song yet anyway so i hope its 
Cheers


Intro/Verse

This is gordy on the xylophone arranged for guitar, russel is also playing something in 
background with a few
effects on his guitar but i'm not quite sure what it is

E||--------------------------------------------------8-----------------------------------------------8------10-----|
B||--10------10------11------11------10------10-----------------8----10------10------11------11-----------------8--|
G||------10------10------10------10------10------10-----10--10-----------10------10------10------10-----10---------|
D||----------------------------------------------------------------------------------------------------------------|
A||----------------------------------------------------------------------------------------------------------------|
E||----------------------------------------------------------------------------------------------------------------|

Chorus
Both kele and russ are using tremolo picking here i jist haven't shown every single note 
so tremolo pick
for the duration shown, listen to the cd and you should pick it up no worries

Kele

     TP_______________________________________________________________________________
E||--------------------|--------------------|--------------------|--------------------|
B||--------------------|--------------------|--------------------|--------------------|
G||--10----------------|--------------------|--------------------|--------------------|
D||--------------------|--10------8---------|--7-----------------|--7-----------------|
A||--------------------|--------------------|--------------------|--------------------|
E||--------------------|--------------------|--------------------|--------------------|

Russell

     TP_______________________________________________________________________________
E||--------------------|--------------------|--------------------|--------------------|
B||--10----------------|--6------------8----|--10----------------|--10-------13---10--|
G||--------------------|--------------------|--------------------|--------------------|
D||--------------------|--------------------|--------------------|--------------------|
A||--------------------|--------------------|--------------------|--------------------|
E||--------------------|--------------------|--------------------|--------------------|

Bridge
This is the "Lets Drive To Brighton" bit, which is probably the hardest to tab, russell 
just playing
the same chorus riff above, while i'm not sure about kele so ive just put in the chords, 
maybe
it's just gordy playing these notes on the bass and kele is playing some really high 
but if he is
it's very hard to hear

|--------------------------|----------------------------------|--------------------------|--------------------------|
|--------------------------|----------------------------------|--------------------------|--------------------------|
|--7--7--7--7--7--7--7--7--|--10--10--10--10--10--10--10--10--|--5--5--5--5--5--5--5--5--|--9--9--9--9--9--9--9--9--|
|--7--7--7--7--7--7--7--7--|--10--10--10--10--10--10--10--10--|--5--5--5--5--5--5--5--5--|--9--9--9--9--9--9--9--9--|
|--5--5--5--5--5--5--5--5--|---8---8---8---8---8---8---8---8--|--3--3--3--3--3--3--3--3--|--7--7--7--7--7--7--7--7--|
|--------------------------|----------------------------------|--------------------------|--------------------------|

|--------------------------|----------------------------------|--------------------------|--------------------------|
|--------------------------|----------------------------------|--------------------------|--------------------------|
|--7--7--7--7--7--7--7--7--|--10--10--10--10--10--10--10--10--|--5--5--5--5--5--5--5--5--|--------------------------|
|--7--7--7--7--7--7--7--7--|--10--10--10--10--10--10--10--10--|--5--5--5--5--5--5--5--5--|--5--5--5--5--5--5--5--5--|
|--5--5--5--5--5--5--5--5--|---8---8---8---8---8---8---8---8--|--3--3--3--3--3--3--3--3--|--5--5--5--5--5--5--5--5--|
|--------------------------|-------------------------------------------------------------|--3--3--3--3--3--3--3--3--|

There is one repeats of this bridge then this solo-ish bit by russell and kele

|----------------------------------------------------------------------------------------13--------15-------17------|
|----------------------------------------------8--10---8---11--10-----11--13---15-----------------------------------|
|--2---3---5---7----5--7--9---7---10---9---10-----------------------------------------------------------------------|
|-------------------------------------------------------------------------------------------------------------------|
|-------------------------------------------------------------------------------------------------------------------|
|-------------------------------------------------------------------------------------------------------------------|

Then the same guitar above goes straight into some more remolo picking

     TP_______________________________________________________________________________
E||--17----------------|--18-------17--15---|--13----------------|--17------15--------|
B||--------------------|--------------------|--------------------|--------------------|
G||--------------------|--------------------|--------------------|--------------------|
D||--------------------|--------------------|--------------------|--------------------|
A||--------------------|--------------------|--------------------|--------------------|
E||--------------------|--------------------|--------------------|--------------------|

while the other guitar plays russells same chorus riff again, then back into the bridge 
more then play this outro twice
while that same chorus riff is still going

    TP____________________________________________________________________________________________________________||Last_time
|---------------------------|--------------------------|--------------------------|---------------------------||--------------------||
|---10----------------------|--10----------11----13----|--15----------------------|--15----------13----11-----||--10--(let-ring)----||
|---------------------------|--------------------------|--------------------------|---------------------------||--------------------||
|---------------------------|--------------------------|--------------------------|---------------------------||--------------------||
|---------------------------|--------------------------|--------------------------|---------------------------||--------------------||
|---------------------------|--------------------------|--------------------------|---------------------------||--------------------||

Well thats it, brilliant song, hope its not got too many mistakes, comments, corrections welcome.
Добавлено: 02.04.2012
Другие материалы по этой песне:

Страница создана 13.03.2012
http://primanota.ru/bloc-party/waiting-for-the-7-18-chords.htm
Привет, Гость.
Предлагаем пройти революционный курс по гитаре.
Подарок от PrimaNota.Ru, забирай!