PrimaNota.ru - самый крупный в мире бесплатный архив песенных текстов, аккордов, табулатур и нот


Bloc Party - Version 20 - таба, бас-таба, видео

Регистрация Запомнить меня
Войти через:  Facebook Google Twitter Vk Yandex Mail.ru

Bloc Party - Version 20 - таба, бас-таба, видео

Печатать
Просмотров: 150
----------------------------------------------------------------------------
                             Version 2.0 - Bloc Party
----------------------------------------------------------------------------

Tabbed by: Radiall
Email: orrinsf@msn.com

Tuning: Standard


Intro

Guitar 1
(This has some effects, not quite sure what they are, sounds like tremolo)
e|----------------------------------------------------------------------|
B|----------------------------------------------------------------------|
G|---------9~------5~------------9~----5~----7~----4~-------------------| x4
D|----------------------5~----------------------------------------------|
A|----------------------------------------------------------------------|
E|----------------------------------------------------------------------|

Guitar 2
e|--7~--7-8-10--7~--7-8-10--------10--7--------10----------10-7-------10---|
B|---------------------------8-10---------8-10----12--8-10-------8-10----8-|
G|-------------------------------------------------------------------------|
D|-------------------------------------------------------------------------|
A|-------------------------------------------------------------------------|
E|-------------------------------------------------------------------------|


Verse 1

Guitar 1
(Same as intro)
e|----------------------------------------------------------------------|
B|----------------------------------------------------------------------|
G|---------9~------5~------------9~----5~----7~----4~-------------------| x2
D|----------------------5~----------------------------------------------|
A|----------------------------------------------------------------------|
E|----------------------------------------------------------------------|

Guitar 2: Nothing


Chorus 1
Guitar 2
e|--------------10--7~-----------------8--7-----------------------------|
B|--------5--8-------------------------------8~-------------------------|
G|----------------------------------------------------------------------| x4
D|----------------------------------------------------------------------|
A|----------------------------------------------------------------------|
E|----------------------------------------------------------------------|
Guitar 1 is playing some effects, but not sure what he's doing.

Repeat Intro x1

Verse 2
Guitar 1
(Same as intro)
e|----------------------------------------------------------------------|
B|----------------------------------------------------------------------|
G|---------9~------5~------------9~----5~----7~----4~-------------------| x4
D|----------------------5~----------------------------------------------|
A|----------------------------------------------------------------------|
E|----------------------------------------------------------------------|


Guitar 2
e|---------3-3---3---3-3---3---3-3---3---3-3---5-------------------|
B|-------------3---3-----3---3-----3---3-----3---3-----------------|
G|-----------------------------------------------------------------| x2
D|-----------------------------------------------------------------|
A|-----------------------------------------------------------------|
E|-----------------------------------------------------------------|

e|---8---8---7---7---8---8---7---10---8---8---7---7---8---8---10---12------|
B|-----8---8---8---8---8---8---8----8---8---8---8---8---8---8----8----10---|
G|-------------------------------------------------------------------------|
D|-------------------------------------------------------------------------|
A|-------------------------------------------------------------------------|
E|-------------------------------------------------------------------------|


Chorus 2
Guitar 2
e|--------------10--7~-----------------8--7-----------------------------|
B|--------5--8-------------------------------8~-------------------------|
G|----------------------------------------------------------------------| x3
D|----------------------------------------------------------------------|
A|----------------------------------------------------------------------|
E|----------------------------------------------------------------------|

e|-------------10--7~-----8-7-----8-7----8-7-----8-7--------------------|
B|-------5--8-----------------8------8-------8-------8------------------|
G|----------------------------------------------------------------------|
D|----------------------------------------------------------------------|
A|----------------------------------------------------------------------|
E|----------------------------------------------------------------------|


Solo
(Can only hear one guitar)
e|-----------------------------------------------------------------------|
B|-----------------------------------------------------------------------|
G|-9-9--9-11-12-11-9-7-------------------------9-9--9-11-12-11-9-7-------|
D|----------------------10-10--------------------------------------------|
A|-----------------------------10-10-12-12-------------------------------|
E|-----------------------------------------------------------------------|

e|-----------------------------------------------------------------------|
B|-----------------------------------------------------------------------|
G|-----------------------------------------------------------------------|
D|----------10-10-10-9-7-5-7-9---------12-12-12-10-9-7-9-10--------------|
A|-----------------------------------------------------------------------|
E|-----------------------------------------------------------------------|

e|-------------------------------------------------------------------------|
B|-------------------------------------------------------------------------|
G|-9---9---9-9-11-12-11-9-7---5---5---5-5-7-9-7-5-4---2---2---2-2-4-5-4-2--|
D|---7---7----------------------5---5-------------------4---4------------4~|
A|-------------------------------------------------------------------------|
E|-------------------------------------------------------------------------|

Outro
Guitar 2
e|--------------10--7~-----------------8--7-----------------------------|
B|--------5--8-------------------------------8~-------------------------|
G|----------------------------------------------------------------------| x3
D|----------------------------------------------------------------------|
A|----------------------------------------------------------------------|
E|----------------------------------------------------------------------|

e|-------------10--7~-----8-7-----8-7----8-7-----8-7--------------------|
B|-------5--8-----------------8------8-------8-------8------------------|
G|----------------------------------------------------------------------|
D|----------------------------------------------------------------------|
A|----------------------------------------------------------------------|
E|----------------------------------------------------------------------|
Still cannot hear what guitar 1's doing. Any suggestions are welcome.

| /  slide up
| \  slide down
| h  hammer-on
| p  pull-off
| ~  vibrato
| +  harmonic
| x  Mute note
===============================================================================
Добавлено: 09.03.2012
Другие материалы по этой песне:

Страница создана 09.03.2012
http://primanota.ru/bloc-party/version-20-chords.htm
Привет, Гость.
Предлагаем пройти революционный курс по гитаре.
Подарок от PrimaNota.Ru, забирай!