PrimaNota.ru - самый крупный в мире бесплатный архив песенных текстов, аккордов, табулатур и нот


Bloc Party - Uniform - текст песни, таба, бас-таба, видео

Регистрация Запомнить меня
Войти через:  Facebook Google Twitter Vk Yandex Mail.ru

Bloc Party - Uniform - текст песни, таба, бас-таба, видео

Печатать
Просмотров: 257
Uniform (Main Solo)
by Bloc Party (off the album "A Weekend In The City", 2007)

It's unusual for me not to tab a whole song, but the whole song's
been done very very well on the other tab. No need to repeat great
work! This is just the solo, I noticed it was off on the other one.
Weird to play this, very hard to tab accurately... This is as close
as I can get to Russell.

Enjoy!

[4:41]

e|---------------------3------------|
B|-----------------------6p5--------|
G|-(19)\---4-4-4-4--5-------7b8r7~--|
D|----------------------------------|
A|----------------------------------|
E|----------------------------------|

[4:44]
      
e|----------------------------------|
B|------5h6p5--------5--6-5----5----|
G|-<5>--5---5--5--7---------7---5---|
D|------x---x-----------------------|
A|----------------------------------|
E|----------------------------------|
  PM    . . .

[4:47]

e|----------------------------------|
B|-8-------8--6-5--6-5--------------|
G|---5-x--5------------7~---5-5-5-/-|
D|----------------------------------|
A|----------------------------------|
E|----------------------------------|

[4:50]

e|----------------------------------------------|
B|---------------------------20----18---17\-----|
G|-/17----17----19----19-------17----17---------|
D|-----17----17----17----17---------------------|
A|----------------------------------------------|
E|----------------------------------------------|
                             | Up several octaves

[4:55]

e|----------------------------------------------|
B|------------------------------------16p(xx)---|
G|----------------------------------------------|
D|-17p15-14------------------------17--------17~|
A|----------17b18r17-17-17b18r17----------------|
E|----------------------------------------------|

[4:59]

e|----------------------------------------------|
B|--------20-21p20------------------------------|
G|-/20-21----------17--17-17--19-19-21-17~~~\---|
D|----------------------------------------------|
A|----------------------------------------------|
E|----------------------------------------------|
                                            | Delay loop on


_____________________________________________________________________________


Key:
/ 	- Slide up
\ 	- Slide down
b 	- Bend
r 	- Return
x 	- Mute (Dead note)
PM 	- Palm mute
~ 	- Let ring/vibrato
h	- Hammer-on
p	- Pull-off
<>	- Harmonic
#n#	- Tremelo pick

Добавлено: 18.07.2012
Другие материалы по этой песне:

Страница создана 07.05.2012
http://primanota.ru/bloc-party/uniform-chords.htm
Привет, Гость.
Предлагаем пройти революционный курс по гитаре.
Подарок от PrimaNota.Ru, забирай!