PrimaNota.ru - самый крупный в мире бесплатный архив песенных текстов, аккордов, табулатур и нот


Bloc Party - Talons - аккорды и текст, таба, бас-таба, видео

Регистрация Запомнить меня
Войти через:  Facebook Google Twitter Vk Yandex Mail.ru

Bloc Party - Talons - аккорды и текст, таба, бас-таба, видео

Печатать
Просмотров: 336
Авторы музыки: Bloc Party

Talons
Bloc Party
Hey, this is the tab for the awesome acoustic version of Talons which can be found 
at: http://uk.youtube.com/watch?v=w9qD2Wc48vk 

Capo 5th

Chords used (relative to capo):

    Am  F   C  A/F A/G Cmaj9 A5  F5  G5  C5
e|--0---1---0-----------0--------------------|
B|--1---1---1---8---6---1--------------------|
G|--2---2---0---7---5---0-----2-----------5--| 
D|--2---3---2---5---3---0-----2---3---5---5--|
A|--0---3---3---0---0---2-----0---3---5---3--|
D|------1-------------------------1---3------|

The strum pattern should be fairly obvious

Intro: Am, F, C (don't hit the e and b strings) x4


Am                  A/F           A/G
   And in the dark it comes for me
Am          A/F           A/G 
   Malevolent and without thought
Am                 A/F         A/G
   Uprooting trees, destroying cars
Am                 A/F           A/G
   Cold and relentless, with arms outstretched

Am              A/F    A/G
   No boat nor brick
Am          A/F             A/G
   Nor crucifix can hold it back
          Am      A/F  A/G
I've been wicked
          Am      A/F  A/G
I've been arrogant

(Change strum pattern)

    Am                                F    C       Cmaj9
And when it comes it will feel like a kiss (Silent about it)
    Am                                F    C       Cmaj9
And when it comes it will feel like a kiss
      Am                        F                 C   Cmaj9
And I cannot say that I was not warned or was misled
    Am                                F    C       Cmaj9
And when it comes it will feel like a kiss

(Same chords as previously)

Awaken from dreams of drunken car crashes
You saddened my friends and claimed all my lovers
I tried to stay still, so it will not see
Its talons rake the side of my face

When did you become such a slut?

And when it comes it will feel like a kiss (Silent about it)
And when it comes it will feel like a kiss
And I cannot say that I was not warned or was misled
And when it comes it will feel like a kiss

e|-0---0---0---0---0---0---1---3---|
B|--1-1-1-1-1-1-1-1-1-1-1-1-1-1----|
G|---2---2---2---2---2---2---2-----|
D|---------------------------------| X4
A|---------------------------------|
E|---------------------------------|

e|--3-0-----0---3-0-1-0---0-----------|
B|------1-3-------------3-------------|
G|2-----------0-----------------------|
D|------------------------------------| X4 (played over vocals)
A|------------------------------------|
E|------------------------------------|

And I didn't think I'd catch fire when I held my hand to the flame
And I didn't think it would catch up as fast as I could have run
Fate came a knocking when I was looking the other way
e|--3-0-----0-------------------------|
B|------1-3---3-----------------------|
G|2-----------------------------------|
D|------------------------------------| 
A|------------------------------------|
E|------------------------------------|
A new disease came in the post for me today

A5, F5, G5  (strum fast) x2 


    A5                                F5    C5  G5
And when it comes it will feel like a kiss
    A5                                F5    C5  G5
And when it comes it will feel like a kiss
    A5
And when it comes
And when it comes
And when it comes
    F5       C5
And when it comes
    A5
And when it comes
And when it comes
                 F5       C5          Am
And when it comes it will feel like a kiss

Enjoy!!

Marshy1991
Добавлено: 26.04.2012
Другие материалы по этой песне:

Страница создана 10.03.2012
http://primanota.ru/bloc-party/talons-chords.htm
Привет, Гость.
Предлагаем пройти революционный курс по гитаре.
Подарок от PrimaNota.Ru, забирай!