PrimaNota.ru - самый крупный в мире бесплатный архив песенных текстов, аккордов, табулатур и нот


Bloc Party - Straight Thru Cru - таба, видео

Регистрация Запомнить меня
Войти через:  Facebook Google Twitter Vk Yandex Mail.ru

Bloc Party - Straight Thru Cru - таба, видео

Печатать
Просмотров: 63
Russell



Verse



E||------|------------------------------|------------------------------|
B||------|------------------------------|------------------------------|
G||------|------------------------------|------------------------------|
D||------|------------------------------|------------------------------|
A||------|3---3-0-0-2-2-5b7r5--2--------|3---3-0-0-2-2-5b7r5--2--------|
E||0-2-3-|------------------------0-2-3-|------------------------0-2-3-|



E||------------------------------|----------------------------------------------------------------||
B||------------------------------|----------------------------------------------------------------||
G||------------------------------|----------------------------------------------------------------||
D||------------------------------|4---4-4-4-4-2-2-4---4-4-4-4-2-2-4---4-4-4-4-2-2-4---4-4-4-------||
A||3---3-0-0-2-2-5b7r5--2--------|----------------------------------------------------------------||
E||------------------------0-2-3-|----------------------------------------------------------0-2-3-||





Chorus


E||------------------x-----|------------------x-----|
B||------------------x---5-|------------------x---5-|
G||6-6-6-6-6-6-6-2-2-x-4---|6-6-6-6-6-6-6-2-2-x-4---|
D||7-7-7-7-7-7-7-4-4-x-----|7-7-7-7-7-7-7-4-4-x-----|
A||------------------x-----|------------------x-----|
E||------------------x-----|------------------x-----|


E||--------------------------------|--------------------------------||
B||5---------------5---------------|--------------------------------||
G||----2-2-2-2-2-2-----2-2-2-2-2-2-|4---2-2-2-2-2-2-4---2-2-2-2-2-2-||
D||--------------------------------|--------------------------------||
A||--------------------------------|--------------------------------||
E||--------------------------------|--------------------------------||





Solo-ish Thing


E||----|---------------------|----------------|----------------------|----------------|
B||----|---------------------|----------------|----------------------|----------------|
G||----|---------------------|----------------|----------------------|----------------|
D||----|---------------------|----------------|----------------------|----------------|
A||7-9-|10---10-10-10-10-9-7-|2---2-2-2-2-7-9-|10---10-10-10-10/12-7-|2---2-2-2-2-0-0-|
E||----|---------------------|----------------|----------------------|----------------|


E||----------------|----------------|--------------------------------|
B||----------------|----------------|--------------------------------|
G||----------------|----------------|--------------------------------|
D||----------------|----------------|--------------------------------|
A||7---7-7-7b9r7-5-|7---7-7-7b9r7-5-|4-4-4-4/5-5-5-5/7-7-7-7/9-------|
E||----------------|----------------|--------------------------------|


E||------|-----------------------|-----------------------|-----------------------|
B||---10-|12---12-12-12-12-10----|--------------------10-|12---12-12-12-12/14-10-|
G||11----|--------------------11-|-----------------11----|-----------------------|
D||------|-----------------------|12---12-12-12-12-------|-----------------------|
A||------|-----------------------|-----------------------|-----------------------|
E||------|-----------------------|-----------------------|-----------------------|

|-----------------------|
|-----------------------|
|11---11-11-11-11-------|
|-----------------12-12-|
|-----------------------|
|-----------------------|


E||-----------------------|-----------------------|
B||-----------------------|-----------------------|
G||12---12-12-12b14r12-11-|12---12-12-12b14r12-11-|
D||-----------------------|-----------------------|
A||-----------------------|-----------------------|
E||-----------------------|-----------------------|

|------------------------------------------------||
|------------------------------------------------||
|12-12-12-12/14-14-14-14/16-16-16-16-19-19-19-19-||
|------------------------------------------------||
|------------------------------------------------||
|------------------------------------------------||



Miss out those 19s when this sections is played again at the end and instead finish on


E||------|-------||
B||------|-------||
G||------|-------||
D||------|-------||
A||------|3~~~~~~||
E||0-2-3-|-------||




The Bit About Bad Karma


E||--------------------------------------------------------|
B||12xx12xx12xx12xx12xx12xx12xx12xx7xx7xx7xx7xx7xx7xx7xx7xx|
G||12xx12xx12xx12xx12xx12xx12xx12xx7xx7xx7xx7xx7xx7xx7xx7xx|
D||12xx12xx12xx12xx12xx12xx12xx12xx7xx7xx7xx7xx7xx7xx7xx7xx|
A||10xx10xx10xx10xx10xx10xx10xx10xx5xx5xx5xx5xx5xx5xx5xx5xx|
E||--------------------------------------------------------|

|------------------------------------------------||
|8xx8xx8xx8xx8xx8xx8xx8xx3xx3xx3xx3xx3xx3xx3xx3xx||
|9xx9xx9xx9xx9xx9xx9xx9xx4xx4xx4xx4xx4xx4xx4xx4xx||
|9xx9xx9xx9xx9xx9xx9xx9xx4xx4xx4xx4xx4xx4xx4xx4xx||
|7xx7xx7xx7xx7xx7xx7xx7xx2xx2xx2xx2xx2xx2xx2xx2xx||
|------------------------------------------------||



E||--------------------------------------------------------|-----------------------------||
B||12xx12xx12xx12xx12xx12xx12xx12xx7xx7xx7xx7xx7xx7xx7xx7xx|8xx8xx8xx8xx8xx8xx8-8-8-3~~~~||
G||12xx12xx12xx12xx12xx12xx12xx12xx7xx7xx7xx7xx7xx7xx7xx7xx|9xx9xx9xx9xx9xx9xx9-9-9-4~~~~||
D||12xx12xx12xx12xx12xx12xx12xx12xx7xx7xx7xx7xx7xx7xx7xx7xx|9xx9xx9xx9xx9xx9xx9-9-9-4~~~~||
A||10xx10xx10xx10xx10xx10xx10xx10xx5xx5xx5xx5xx5xx5xx5xx5xx|7xx7xx7xx7xx7xx7xx7-7-7-2~~~~||
E||--------------------------------------------------------|-----------------------------||


___________________________________________________________________________________



Kele




Verse


I'm not entirely sure if this is actually Kele or if there's a bit of double tracked bass going on.
If he is playing this it's certainly low in the mix.

E||------|----------------------------------|----------------------------------|
B||------|----------------------------------|----------------------------------|
G||------|----------------------------------|----------------------------------|
D||------|----------------------------------|----------------------------------|
A||------|3---3-3-3-3-3-3-3-2---2-2-2-------|3---3-3-3-3-3-3-3-2---2-2-2-------|
E||0-2-3-|----------------------------0-2-3-|----------------------------0-2-3-|


E||----------------------------------|
B||----------------------------------|
G||----------------------------------|
D||----------------------------------|
A||3---3-3-3-3-3-3-3-2---2-2-2-------|
E||----------------------------0-2-3-|
| Palm | | Palm | | Palm |
| Muted | | Muted | | Muted |

|----------------------------------------------------------------||
|----------------------------------------------------------------||
|----------------------------------------------------------------||
|----------------------------------------------------------------||
|----------------------------------------------------------------||
|2--2--2-2-2-2-2-2--2--2-2-2-2-2-2--2--2-2-2-2-2-2--2--2-2-0-2-3-||



Chorus


E||--------------------------------|--------------------------------|
B||7---7-7-7-7-7-7-7---7-7-7-7-7-7-|7---7-7-7-7-7-7-7---7-7-7-7-7-7-|
G||7---7-7-7-7-7-7-6---6-6-6-6-6-6-|7---7-7-7-7-7-7-6---6-6-6-6-6-6-|
D||7---7-7-7-7-7-7-7---7-7-7-7-7-7-|7---7-7-7-7-7-7-7---7-7-7-7-7-7-|
A||5---5-5-5-5-5-5-4---4-4-4-4-4-4-|5---5-5-5-5-5-5-4---4-4-4-4-4-4-|
E||--------------------------------|--------------------------------|

E||--------------------------------|--------------------------------||
B||3---3-3-3-3-3-3-3---3-3-3-3-3-3-|--------------------------------||
G||4---4-4-4-4-4-4-4---4-4-4-4-4-4-|4---4-4-4-4-4-4-4---4-4-4-4-4-4-||
D||4---4-4-4-4-4-4-4---4-4-4-4-4-4-|5---5-5-5-5-5-5-5---5-5-5-5-5-5-||
A||2---2-2-2-2-2-2-2---2-2-2-2-2-2-|5---5-5-5-5-5-5-5---5-5-5-5-5-5-||
E||--------------------------------|3---3-3-3-3-3-3-3---3-3-3-3-3-3-||




Solo-ish Thing


E||-----|----------------------|----------------|-----------------------|----------------|
B||-----|----------------------|----------------|-----------------------|----------------|
G||9-11-|12---12-12-12-12-11-9-|4---4-4-4-4-2-2-|12---12-12-12-12/14-11-|4---4-4-4-4-2-2-|
D||-----|----------------------|----------------|-----------------------|----------------|
A||-----|----------------------|----------------|-----------------------|----------------|
E||-----|----------------------|----------------|-----------------------|----------------|


E||-----------------|-----------------|----------------|----------------||
B||-----------------|-----------------|----------------|----------------||
G||9---9-9-9b11r9-7-|9---9-9-9b11r9-7-|6---6-6-6-6-6-6-|6-6-6-6-6-6-6-6-||
D||-----------------|-----------------|----------------|----------------||
A||-----------------|-----------------|----------------|----------------||
E||-----------------|-----------------|----------------|----------------||




The Bit About Bad Karma


Far as I can tell Russell and Kele are playing the same thing here but Kele isn't doing
all the ska unckuka stuff.

E||----------------------------------------|--------------------------------||
B||12-12-12-12-12-12-12-12-7-7-7-7-7-7-7-7-|8-8-8-8-8-8-8-8-3-3-3-3-3-3-3-3-||
G||12-12-12-12-12-12-12-12-7-7-7-7-7-7-7-7-|9-9-9-9-9-9-9-9-4-4-4-4-4-4-4-4-||
D||12-12-12-12-12-12-12-12-7-7-7-7-7-7-7-7-|9-9-9-9-9-9-9-9-4-4-4-4-4-4-4-4-||
A||10-10-10-10-10-10-10-10-5-5-5-5-5-5-5-5-|7-7-7-7-7-7-7-7-2-2-2-2-2-2-2-2-||
E||----------------------------------------|--------------------------------||



E||----------------------------------------|---------------------||
B||12-12-12-12-12-12-12-12-7-7-7-7-7-7-7-7-|8-8-8-8-8-8-8-8-3~~~~||
G||12-12-12-12-12-12-12-12-7-7-7-7-7-7-7-7-|9-9-9-9-9-9-9-9-4~~~~||
D||12-12-12-12-12-12-12-12-7-7-7-7-7-7-7-7-|9-9-9-9-9-9-9-9-4~~~~||
A||10-10-10-10-10-10-10-10-5-5-5-5-5-5-5-5-|7-7-7-7-7-7-7-7-2~~~~||
E||----------------------------------------|---------------------||





Same as Russell's part, finish with this.


E||------|-------||
B||------|-------||
G||------|-------||
D||------|-------||
A||------|3~~~~~~||
E||0-2-3-|-------||
Добавлено: 13.07.2013
Другие материалы по этой песне:
  • Аккорды и текст

Страница создана 13.07.2013
http://primanota.ru/bloc-party/straight-thru-cru-chords.htm
Привет, Гость.
Предлагаем пройти революционный курс по гитаре.
Подарок от PrimaNota.Ru, забирай!