PrimaNota.ru - самый крупный в мире бесплатный архив песенных текстов, аккордов, табулатур и нот


Bloc Party - Rhododendrons - таба, видео

Регистрация Запомнить меня
Войти через:  Facebook Google Twitter Vk Yandex Mail.ru

Bloc Party - Rhododendrons - таба, видео

Печатать
Просмотров: 122
-------------------------------------------------------------------------------
                             Rhododendrons - Bloc Party
-------------------------------------------------------------------------------
Tabbed by: Alex Song
Email: alexsongjr@gmail.com

Tuning: Standard

Kele just tremolo picks this note for the whole verse.

e|---7-----------------------------------------------------------------------|
B|---------------------------------------------------------------------------|
G|---------------------------------------------------------------------------|
D|---------------------------------------------------------------------------|
A|---------------------------------------------------------------------------|
E|---------------------------------------------------------------------------|

Russell's chords during the verse

e|---10--12--5--3--5--7--8-p-7--3--------------------------------------------|
B|---10--10--7--------8---------3--------------------------------------------|
G|---------------------------------------------------------------------------|
D|---------------------------------------------------------------------------|
A|---------------------------------------------------------------------------|
E|---------------------------------------------------------------------------|

Russell's part beginning with "Boy.."

e|---------------------------------------------------------------------------|
B|---------------------------------------------------------------------------|
G|---------7--------7--------7--5--4---------11-------11--------11--12--14---|
D|---5--5-----5--5-----5--5------------9--9------9--9-----9--9---------------|
A|---------------------------------------------------------------------------|
E|---------------------------------------------------------------------------|

e|---------------------------------------------------------------------------|
B|---------------------------------------------------------------------------|
G|---------7------7------7--5--4----------12---------12--------12--14--16----|
D|---4--4----4--4---4--4-----------10--10------10--10-----10-10--------------|
A|---------------------------------------------------------------------------|
E|---------------------------------------------------------------------------|

e|---------------------------------------------------------------------------|
B|----------------------------------13--12-----------------------------------|
G|---9--9--12--9--9--12--9--9--12--------------------------------------------|
D|---------------------------------------------------------------------------|
A|---------------------------------------------------------------------------|
E|---------------------------------------------------------------------------|

e|--------------------------------------------7------------------------------|
B|-----------------------------------------10----8---------------------------|
G|---------7--------7-------7--5--4---7--7-----------------------------------|
D|---4--4-----4--4----4--4---------------------------------------------------|
A|---------------------------------------------------------------------------|
E|---------------------------------------------------------------------------|

Kele repeats this throughout the second verse. Russell plays the same chords he did in 
first verse.

e|-----------10--------------------------------------------------------------|
B|-------12------12----------------------------------------------------------|
G|---9-----------------------------------------------------------------------|
D|---------------------------------------------------------------------------|
A|---------------------------------------------------------------------------|
E|---------------------------------------------------------------------------|

Russell plays the same thing starting with "Boy..."

Starting with "So you want to be...", Russell quietly plays this part. Listen to the
to find how many times and when he plays.

e|---------------------------------------------------------------------------|
B|---------------------------------------------------------------------------|
G|---7--7------------7----------7--7-----------------------------------------|
D|---------------9------9----------------------------------------------------|
A|---------------------------------------------------------------------------|
E|---------------------------------------------------------------------------|

Gorgeous solo time. It repeats over and over after the R

e|------------------------------------------------------------------------------|
B|-----------------------------------------12--13--12---------15--15------------|
G|--------------------------------R-12--14-------------14--12---------12--------|
D|---9--9--10--10--12--12--14--14-----------------------------------------------|
A|------------------------------------------------------------------------------|
E|------------------------------------------------------------------------------|

e|---------------------------------------------------------------------------|
B|---------------15--13--12--------------------------------------------------|
G|---11--11--11--------------------------------------------------------------|
D|---------------------------------------------------------------------------|
A|---------------------------------------------------------------------------|
E|---------------------------------------------------------------------------|


************************************

| /   slide up
| \   slide down
| h   hammer-on
| p   pull-off
| ~   vibrato
| +   harmonic
| x   Mute note
| b   Bend
| pb  Pre-bend
| br  Bend release
| pbr Pre-bend release
| brb Bend release bend

************************************
Добавлено: 26.06.2012
Другие материалы по этой песне:

Страница создана 26.06.2012
http://primanota.ru/bloc-party/rhododendrons-chords.htm
Привет, Гость.
Предлагаем пройти революционный курс по гитаре.
Подарок от PrimaNota.Ru, забирай!