PrimaNota.ru - самый крупный в мире бесплатный архив песенных текстов, аккордов, табулатур и нот


Bloc Party - Octopus - таба, видео

Регистрация Запомнить меня
Войти через:  Facebook Google Twitter Vk Yandex Mail.ru

Bloc Party - Octopus - таба, видео

Печатать
Просмотров: 128
 OCTOPUS - BLOC PARTY - FOUR - 2012


e|---------------------------------------------|               -----------|
B|---------------------------------------------|               -----------|
G|----5-5-5-5----5-5-5-5----6-6-6-6----6-6-6-6-| 4th time play ----7-7-7-7|
D|----7-7-7-7----7-7-7-7----7-7-7-7----7-7-7-7-|               ----7-7-7-7|
A|---------------------------------------------|               -----------|
E|-7~/--------7~/--------7~/--------7~/--------|               -7~/-------|

Chorus:

e|------------------------------------------|          --------|
B|------------------------------------------|          --------|
G|--10-10-10-10-10-10-10-10-9-9-9-9-9-9-9-9-| 4th time -7~-----|
D|--------------------------7-7-7-7-7-7-7-7-|          -9~--10-|
A|------------------------------------------|          --------|
E|------------------------------------------|          --------|

Play the verse again

Break:

e|-12p11h12p11h12p11h12p11-15p14h15p14h15p14h15p14-17p16h17p16h17p16h17p16-| 
B|-------------------------------------------------------------------------|
G|-------------------------------------------------------------------------|
D|-------------------------------------------------------------------------| 
A|-------------------------------------------------------------------------|
E|-------------------------------------------------------------------------|

e|--19p18h19p18h19p18h19---------------------------------------------------|
B|-------------------------------------------------------------------------|
G|-------------------------------------------------------------------------|
D|-------------------------------------------------------------------------| 
A|-------------------------------------------------------------------------|
E|-------------------------------------------------------------------------|

Play the chorus again

Solo:

e|--10------10------------------8------8-----------------|
B|----11--11--11--11-four times--10--10-10--10-four-times|
G|------12------12-----------------12-----12-------------|
D|-------------------------------------------------------| x2
A|-------------------------------------------------------|
E|-------------------------------------------------------|

e|--12------12------------------13------13------------------191919191919/-|
B|----13--13--13--13-four times---13--13--13--13-four-times---------------|
G|------14------14------------------14------14----------------------------|
D|------------------------------------------------------------------------| 
A|------------------------------------------------------------------------|
E|------------------------------------------------------------------------|

Then back to the verse
Добавлено: 24.06.2013
Другие материалы по этой песне:

Страница создана 24.06.2013
http://primanota.ru/bloc-party/octopus-chords.htm
Привет, Гость.
Предлагаем пройти революционный курс по гитаре.
Подарок от PrimaNota.Ru, забирай!