PrimaNota.ru - самый крупный в мире бесплатный архив песенных текстов, аккордов, табулатур и нот


Bloc Party - England - таба, бас-таба, видео

Регистрация Запомнить меня
Войти через:  Facebook Google Twitter Vk Yandex Mail.ru

Bloc Party - England - таба, бас-таба, видео

Печатать
Просмотров: 327
-------------------------------------------------------------------------------
                             England - Bloc Party
-------------------------------------------------------------------------------
Tabbed by: Sam Jones
Email: sam_jones123@hotmail.com

Tuning:Standard

intro:
(guitar 1-kele) 
e|----3----------6-----------------------3---|
B|----3----------8-----------------------4---|
G|----3----------6----repeat 4X then-----5---|
D|----5----------8-----------------------5---|
A|----5----------6-----------------------3---|
E|----3----------0-----------------------0---|

(guitar 2-russell)
e|-13---------13----------13p10---------13p10----------13---------13-------|
B|----11--13------11--13--------13--15---------13--15-----15--11-----11-13-|

e|-13-----------13p10-----------11----------11---------13-------------|
B|-----13--15----------13--15-------15--11-----15--11------15--11-----|

e|-11----------11----------11----------13----------13--11-------|
B|-----15--11------15--11------15--11------15--11----------15---|

verse:
(guitar 1) repeat a few times
e|----3----------6----------------------3---|
B|----3----------8----------------------4---|
G|----3----------6----------------------5---|
D|----5----------8----repeat 2X then----5---|
A|----5----------6----------------------3---|
E|----3----------0----------------------0---|

e|----3----------6---------5-----6-----1-----6---6--|
B|----3----------8---------5-----6-----1-----8---8--|
G|----3----------6---------6-----7-----2-----6---6--|
D|----5----------8---------7-----8-----3-----8---8--|
A|----5----------6---------7-----8-----3-----6---6--|
E|----3----------0---------5-----6-----1-----0---0--|

that's all i've got so far, hope someone can add to it
Добавлено: 25.03.2012
Другие материалы по этой песне:
  • Аккорды и текст

Страница создана 25.03.2012
http://primanota.ru/bloc-party/england-chords.htm
Привет, Гость.
Предлагаем пройти революционный курс по гитаре.
Подарок от PrimaNota.Ru, забирай!