PrimaNota.ru - самый крупный в мире бесплатный архив песенных текстов, аккордов, табулатур и нот


Bloc Party - Emma Kates Accident - текст песни, таба, видео

Регистрация Запомнить меня
Войти через:  Facebook Google Twitter Vk Yandex Mail.ru

Bloc Party - Emma Kates Accident - текст песни, таба, видео

Печатать
Просмотров: 148
Sorry if I made mistakes and that it is incomplete, it's my first tabbed song.
*Bloc Party - Emma Kate's Accident.
(tabed by bo; incomplete.)

Playing the song:
Intro x1

Verse1:
Guitar1 repeats intro until the chorus (x2)
Guitar2 plays over (x2)

Chorus:
Guitar1 repeats chorus until verse2 (x1)

Verse2:
Guitar1 repeats intro until the chorus (x1 without singing, x1 with singing)
Guitar2 plays over (x2)

Chorus:
Guitar1 repeats chorus until verse2 (x1)

Bridge:
Guitar1 plays verse (2x without singing)
Guitar2 plays tremolo bridge over guitar1

Verse-type without singing, only lah-lahs:
Guitar2 plays verse (4x, fades out..)
Guitar1 plays random notes that match :]]]

intro/verse

guitar 1
e|-------------------------------------------------------------------------------------------------------------------------|
B|-----7-----7------10-------10------7-----7------10-------10------7-----7------10-------10--------------------------------|
G|-------7-----7-------11-------11-----7-----7-------11-------11-----7-----7-------11-------11----11-------11-------11-----|
D|---9-----9-----12-------12-------9-----9-----12-------12-------9-----9-----12-------12-------------12-------12-------12--|
A|---------------------------------------------------------------------------------------------10-------10-------10------10|
E|-------------------------------------------------------------------------------------------------------------------------|


guitar 2 verse
e|-------------------------------------------------------------------------------------------------------------------------|
B|---7~----------------------------7~----------------------------7~----------------------------10~-------------------------|
G|---4~----------------------------4~----------------------------4~----------------------------7~--------------------------|
D|-------------------------------------------------------------------------------------------------------------------------|
A|-------------------------------------------------------------------------------------------------------------------------|
E|-------------------------------------------------------------------------------------------------------------------------|

e|-------------------------------------------------------------------------------------------------------------------------|
B|---12-14-15-10-8-7---------------8-----------------------------10--------------------------------------------------------|
G|-------------------------------------------------------------------------------------------------------------------------|
D|---------------------------------5-----------------------------7---------------------------------------------------------|
A|-------------------------------------------------------------------------------------------------------------------------|
E|-------------------------------------------------------------------------------------------------------------------------|

guitar 1 chorus

e|-------------------------------------------------------------------------------------------------------------------------|
B|---8-7----8-7-----8-7----8-7--------8-7----8-7-------8-7----8-7----------------------------------------------------------|
G|--------7------7~------7------7-6~-------7------7-9b------7------7-14~---------------------------------------------------|
D|-------------------------------------------------------------------------------------------------------------------------|
A|-------------------------------------------------------------------------------------------------------------------------|
E|-------------------------------------------------------------------------------------------------------------------------|


verse 2

guitar 1
e|-------------------------------------------------------------------------------------------------------------------------|
B|-----7-----7------10-------10------7-----7------10-------10------7-----7------10-------10--------------------------------|
G|-------7-----7-------11-------11-----7-----7-------11-------11-----7-----7-------11-------11----11-------11-------11-----|
D|---9-----9-----12-------12-------9-----9-----12-------12-------9-----9-----12-------12-------------12-------12-------12--|
A|---------------------------------------------------------------------------------------------10-------10-------10------10|
E|-------------------------------------------------------------------------------------------------------------------------|

guitar 2
e|-------------------------------------------------------------------------------------------------------------------------|
B|---7~----5~---------------------7~----5~----------------7~----5~-----------------------------10~-12-14-15-10-8-7---------|
G|---4~----2~---------------------4~----2~----------------4~----2~-----------------------------7~--------------------------|
D|-------------------------------------------------------------------------------------------------------------------------|
A|-------------------------------------------------------------------------------------------------------------------------|
E|-------------------------------------------------------------------------------------------------------------------------|

guitar 1 chorus
e|-------------------------------------------------------------------------------------------------------------------------|
B|---8-7----8-7-----8-7----8-7--------8-7----8-7-------8-7----8-7----------------------------------------------------------|
G|--------7------7~------7------7-6~-------7------7-9b------7------7-14~---------------------------------------------------|
D|-------------------------------------------------------------------------------------------------------------------------|
A|-------------------------------------------------------------------------------------------------------------------------|
E|-------------------------------------------------------------------------------------------------------------------------|

bridge:
guitar 1 plays verse
guitar 2 (tremolo)
e|-------------------------------------------------------------------------------------------------------------------------|
B|---12--14-15--12--10-7-12-10-7-8-7-3-5-----------------------------------------------------------------------------------|
G|-------------------------------------------------------------------------------------------------------------------------|
D|-------------------------------------------------------------------------------------------------------------------------|
A|-------------------------------------------------------------------------------------------------------------------------|
E|-------------------------------------------------------------------------------------------------------------------------|
Добавлено: 05.04.2012
Другие материалы по этой песне:

Страница создана 05.04.2012
http://primanota.ru/bloc-party/emma-kates-accident-chords.htm
Привет, Гость.
Предлагаем пройти революционный курс по гитаре.
Подарок от PrimaNota.Ru, забирай!