PrimaNota.ru - самый крупный в мире бесплатный архив песенных текстов, аккордов, табулатур и нот


Bloc Party - Atonement - таба, бас-таба, видео

Регистрация Запомнить меня
Войти через:  Facebook Google Twitter Vk Yandex Mail.ru

Bloc Party - Atonement - таба, бас-таба, видео

Печатать
Просмотров: 159
hi, this is my first tab, i love this song its a wicked song and no-one had done a tab 
it yet so thought i would have a go, not sure on everything but its close. Bloc 'n' Roll!!

Intro/verse 1

e|-------------------------------------------------------------------------|
B|-------------------------------------------------------------------------|
G|-------------------------------------------------------------------------|
D|-------------------------------------------------------------------------|
A|101010101010101010101010101010101010101010101010101010101010101010101010-|
E|-------------------------------------------------------------------------|

e|-------------------------------------------------------------------------|
B|-------------------------------------------------------------------------|
G|-------------------------------------------------------------------------|
D|-------------------------------------------------------------------------|
A|55555-77777-1010101010-33333333-on last time end with 22222--------------|
E|-------------------------------------------------------------------------|

Repeat the above four times

Chorus

e|-------------------------------------------------------------------------|
B|-------------------------------------------------------------------------|
G|-4-5-7-4-5-4----4-4-5-4---4-5-7-4-5-4-7--4-4-5-4-------------------------|
D|5------------5-5-5-----5-5--------------5-5-----5----repeat twice--------|
A|--------------5------------------------5---------------------------------|
E|-------------------------------------------------------------------------|

Verse 2

e|-------------------------------------------------------------------------|
B|151515151515151515-1313131313-1212121212-1313131313-1212121212-88888-----|
G|-------------------------------------------------------------------------|
D|----------------------------play twice-----------------------------------|
A|-------------------------------------------------------------------------|
E|-------------------------------------------------------------------------|

e|151515151515151515-1414141414-1010101010-88888-77777-33333---------------|
B|-------------------------------------------------------------------------|
G|-------------------------------------------------------------------------|
D|----------------------------play twice-----------------------------------|
A|-------------------------------------------------------------------------|
E|-------------------------------------------------------------------------|

Chorus

e|-------------------------------------------------------------------------|
B|-------------------------------------------------------------------------|
G|-4-5-7-4-5-4----4-4-5-4---4-5-7-4-5-4-7--4-4-5-4-------------------------|
D|5------------5-5-5-----5-5--------------5-5-----5----repeat twice--------|
A|--------------5------------------------5---------------------------------|
E|-------------------------------------------------------------------------|

Bridge

e|--17-14------------------------------------------------------------------|
B|12-----12-15-----12-15-12------------------------------------------------|
G|------------12-14------------------play four times-----------------------|
D|-------------------------------------------------------------------------|
A|-------------------------------------------------------------------------|
E|-------------------------------------------------------------------------|

e|-------------------------------------------------------------------------|
B|-------------------------------------------------------------------------|
G|11-12-11-12-12-14-16-14-16-16-11-12-11-12-12-9-7-5-4-4-------------------|
D|-------------------------------------------------------------------------|
A|-------------------------------------------------------------------------|
E|-------------------------------------------------------------------------|

e|-------------------------------------------------------------------------|
B|-------------------------------------------------------------------------|
G|11-12-11-12-12-14-16-14-16-16-19-19-17-17-16-12--------------------------|
D|-------------------------------------------------------------------------|
A|-------------------------------------------------------------------------|
E|-------------------------------------------------------------------------|

Ending

e|-------------------------------------------------------------------------|
B|15151515151515151515-1313131313-1212121212-1313131313-1212121212-88888---|
G|-------------------------------------------------------------------------|
D|-------------------------play twice--------------------------------------|
A|-------------------------------------------------------------------------|
E|-------------------------------------------------------------------------|

e|-------------------------------------------------------------------------|
B|12--15-12--15-12--15-12--15-12--15-12--15-12--15-13-12-------------------|
G|--12-----12-----12-----12-----12-----12-----12--------14-12--------------|
D|-------------------------------------------------------------------------|
A|-----------------------------Play Twice----------------------------------|
E|-------------------------------------------------------------------------|

There you have it, like i say i dont think all of it is 100% correct but its nearly 
ANyway thanks for lookign and i hope this helps you to play along to this great song.
Добавлено: 13.05.2012
Другие материалы по этой песне:
  • Аккорды и текст

Страница создана 07.04.2012
http://primanota.ru/bloc-party/atonement-chords.htm
Привет, Гость.
Предлагаем пройти революционный курс по гитаре.
Подарок от PrimaNota.Ru, забирай!