PrimaNota.ru - самый крупный в мире бесплатный архив песенных текстов, аккордов, табулатур и нот


Blitzkrieg - Saviour - таба, бас-таба, драм-таба, видео

Регистрация Запомнить меня
Войти через:  Facebook Google Twitter Vk Yandex Mail.ru

Blitzkrieg - Saviour - таба, бас-таба, драм-таба, видео

Печатать
Просмотров: 44
                                    Saviour                                     


                                  Blitzkrieg

Instruments:
- G #1
- G #2
- G #3
- Voice Melody



Guitar #1:

Mick Procter


                              Intro                                            
                              PM    PM      PM      PM                         
     S    W                   E     E  Q    E  Q    E     Q    E  H        E   
E||----|-------------------|---------------------------|----------------------|
B||----|-------------------|---------------------------|----------------------|
G||----|-------------------|---------------------------|----------------------|
D||----|-------------------|-----------2-------4-------|--5-------7-----------|
A||----|-------------------|-----------2-------4-------|--5-------7-----------|
E||----|-------------------|--0-----0-------0-------0--|-------0--------------|


  PM PM      PM      PM                           PM PM      PM      PM  
  E  E  Q    E  Q    E     Q    E  H        E     E  E  Q    E  Q    E   
------------------------|----------------------|------------------------|
------------------------|----------------------|------------------------|
------------------------|----------------------|------------------------|
--------2-------4-------|--5-------7-----------|--------2-------4-------|
--------2-------4-------|--5-------7-----------|--------2-------4-------|
--0--0-------0-------0--|-------0--------------|--0--0-------0-------0--|


                         PM PM      PM      PM                         
  Q    E  H        E     E  E  Q    E  Q    E     Q    E  H        E   
----------------------|------------------------|----------------------|
----------------------|------------------------|----------------------|
----------------------|------------------------|----------------------|
--5-------7-----------|--------2-------4-------|--5-------7-----------|
--5-------7-----------|--------2-------4-------|--5-------7-----------|
-------0--------------|--0--0-------0-------0--|-------0--------------|


  Main Riff                                                
  PM        PM    PM PM    PM PM       PM PM               
  E         E  E  E  E  E  E  E     E  E  E  Q.      Q     
---------------------------------|------------------------|
---------------------------------|------------------------|
---------------------------------|------------------------|
---------------2--------4--------|--5--------7~------7----|
---------------2--------4--------|--5--------7~------7----|
--0---------0-----0--0-----0--0--|-----0--0---------------|


  PM PM    PM PM    PM PM       PM PM                 PM PM    PM PM    PM PM  
  E  E  E  E  E  E  E  E     E  E  E  Q.      Q       E  E  E  E  E  E  E  E   
--------------------------|------------------------|--------------------------|
--------------------------|------------------------|--------------------------|
--------------------------|------------------------|--------------------------|
--------2--------4--------|--5--------7~------7----|--------2--------4--------|
--------2--------4--------|--5--------7~------7----|--------2--------4--------|
--0--0-----0--0-----0--0--|-----0--0---------------|--0--0-----0--0-----0--0--|


     PM PM                 PM PM    PM PM    PM PM       PM PM               
  E  E  E  Q.      Q       E  E  E  E  E  E  E  E     E  E  E  Q.      Q     
------------------------|--------------------------|------------------------|
------------------------|--------------------------|------------------------|
------------------------|--------------------------|------------------------|
--5--------7~------7----|--------2--------4--------|--5--------7~------7----|
--5--------7~------7----|--------2--------4--------|--5--------7~------7----|
-----0--0---------------|--0--0-----0--0-----0--0--|-----0--0---------------|


  Verso                                                      
  W                   H.           Q       W                 
-------------------|--------------------|-------------------|
-------------------|--------------------|-------------------|
-------------------|---------------4----|-------------------|
--4----------------|--L------------4----|--2----------------|
--2----------------|--L-----------------|--0----------------|
-------------------|--------------------|-------------------|


                  SH           PM PM    PM PM    PM PM  
  S S S S S E.    E  Q.        E  E  E  E  E  E  E  E   
----------------------------|--------------------------|
----------------------------|--------------------------|
----------------------------|--------------------------|
------------5---<>7--5------|--------2--------4--------|
--------5-7-----------------|--------2--------4--------|
--5-7-8---------------------|--0--0-----0--0-----0--0--|


     PM PM                 PM PM    PM PM    PM PM       PM PM                
  E  E  E  Q.      Q       E  E  E  E  E  E  E  E     E  E  E  Q    E  E  E   
------------------------|--------------------------|-------------------------|
------------------------|--------------------------|-------------------------|
------------------------|--------------------------|-------------------------|
--5--------7~------7----|--------2--------4--------|--5--------7----7--5-----|
--5--------7~------7----|--------2--------4--------|--5--------7----7--5-----|
-----0--0---------------|--0--0-----0--0-----0--0--|-----0--0----------------|


  W                   H.           Q       W                 
-------------------|--------------------|-------------------|
-------------------|--------------------|-------------------|
-------------------|---------------4----|-------------------|
--4----------------|--L------------4----|--2----------------|
--2----------------|--L-----------------|--0----------------|
-------------------|--------------------|-------------------|


                  SH           PM PM    PM PM    PM PM  
  S S S S S E.    E  Q.        E  E  E  E  E  E  E  E   
----------------------------|--------------------------|
----------------------------|--------------------------|
----------------------------|--------------------------|
------------5---<>7--5------|--------2--------4--------|
--------5-7-----------------|--------2--------4--------|
--5-7-8---------------------|--0--0-----0--0-----0--0--|


     PM PM                 PM PM    PM PM    PM PM       PM PM                
  E  E  E  Q.      Q       E  E  E  E  E  E  E  E     E  E  E  Q    E  E  E   
------------------------|--------------------------|-------------------------|
------------------------|--------------------------|-------------------------|
------------------------|--------------------------|-------------------------|
--5--------7~------7----|--------2--------4--------|--5--------7----7--5-----|
--5--------7~------7----|--------2--------4--------|--5--------7----7--5-----|
-----0--0---------------|--0--0-----0--0-----0--0--|-----0--0----------------|


  W                   H.           Q       W                 
-------------------|--------------------|-------------------|
-------------------|--------------------|-------------------|
-------------------|---------------4----|-------------------|
--4----------------|--L------------4----|--2----------------|
--2----------------|--L-----------------|--0----------------|
-------------------|--------------------|-------------------|


                  SH           PM PM    PM PM    PM PM  
  S S S S S E.    E  Q.        E  E  E  E  E  E  E  E   
----------------------------|--------------------------|
----------------------------|--------------------------|
----------------------------|--------------------------|
------------5---<>7--5------|--------2--------4--------|
--------5-7-----------------|--------2--------4--------|
--5-7-8---------------------|--0--0-----0--0-----0--0--|


     PM PM                 PM PM    PM PM    PM PM       PM PM                
  E  E  E  Q.      Q       E  E  E  E  E  E  E  E     E  E  E  Q    E  E  E   
------------------------|--------------------------|-------------------------|
------------------------|--------------------------|-------------------------|
------------------------|--------------------------|-------------------------|
--5--------7~------7----|--------2--------4--------|--5--------7----7--5-----|
--5--------7~------7----|--------2--------4--------|--5--------7----7--5-----|
-----0--0---------------|--0--0-----0--0-----0--0--|-----0--0----------------|


  Pre-Coro                                                        
  W                   Q    E   Q    Q    E      W                 
-------------------|-------------------------|-------------------|
-------------------|-------------------------|-------------------|
-------------------|-------------------------|-------------------|
--4----------------|--L----4S--2----2----2S--|--4----------------|
--2----------------|--L----2S--0----0----0S--|--2----------------|
-------------------|-------------------------|-------------------|


  Q    E   Q    Q    E      W                   Q    E   Q    Q    E    
-------------------------|-------------------|-------------------------|
-------------------------|-------------------|-------------------------|
-------------------------|-------------------|-------------------------|
--L----4S--2----2----2S--|--4----------------|--L----4S--2----2----2S--|
--L----2S--0----0----0S--|--2----------------|--L----2S--0----0----0S--|
-------------------------|-------------------|-------------------------|


                                               Coro              
  W                   Q    E   Q    Q    E     W                 
-------------------|------------------------|-------------------|
-------------------|------------------------|-------------------|
-------------------|------------------------|-------------------|
--4----------------|--L----4S--2----2----2--|--9----------------|
--2----------------|--L----2S--0----0----0--|--7----------------|
-------------------|------------------------|-------------------|


                   PM PM                                         PM PM  
  Q    E   Q    E  E  E     W                   Q    E   Q    E  E  E   
-------------------------|-------------------|-------------------------|
-------------------------|-------------------|-------------------------|
-------------------------|-------------------|-------------------------|
--L----9S--7----7--------|--9----------------|--L----9S--7----7--------|
--L----7S--5----5--7--5--|--7----------------|--L----7S--5----5--7--5--|
-------------------------|-------------------|-------------------------|


                                       PM PM                      
  W                   Q    E   Q    E  E  E     W                 
-------------------|-------------------------|-------------------|
-------------------|-------------------------|-------------------|
-------------------|-------------------------|-------------------|
--9----------------|--L----9S--7----7--------|--9----------------|
--7----------------|--L----7S--5----5--7--5--|--7----------------|
-------------------|-------------------------|-------------------|


                            Pre-Coro                                    
                   PM PM                                                
  Q    E   Q    E  E  E     W                   Q    E   Q    Q    E    
-------------------------|-------------------|-------------------------|
-------------------------|-------------------|-------------------------|
-------------------------|-------------------|-------------------------|
--L----9S--7----7--------|--4----------------|--L----4S--2----2----2S--|
--L----7S--5----5--7--5--|--2----------------|--L----2S--0----0----0S--|
-------------------------|-------------------|-------------------------|


  W                   Q    E   Q    Q    E      W                 
-------------------|-------------------------|-------------------|
-------------------|-------------------------|-------------------|
-------------------|-------------------------|-------------------|
--4----------------|--L----4S--2----2----2S--|--4----------------|
--2----------------|--L----2S--0----0----0S--|--2----------------|
-------------------|-------------------------|-------------------|


                           Puente                                      
  Q    E   Q    Q    E     Q.     Q.     Q       E  E  Q    Q    Q     
------------------------|--7------6------5----|--L--4--L----3----2----|
------------------------|--x------x------x----|--L--x--L----x----x----|
------------------------|--9------8------7----|--L--6--L----5----4----|
--L----4S--2----2----2--|---------------------|-----------------------|
--L----2S--0----0----0--|---------------------|-----------------------|
------------------------|---------------------|-----------------------|


                                                Intro Riff                     
                                                PM         PM      PM      PM  
  Q.     Q.     Q       E  E  Q    Q    Q       E          E  Q    E  Q    E   
--1------------------|-----------------------|--------------------------------|
--x------5------4----|--L--3--L----2----1----|--0----------L--L----L--L----L--|
--3------x------x----|--L--x--L----x----x----|--x-----------------------------|
---------7------6----|--L--5--L----4----3----|--2----------L--2-------4-------|
---------------------|-----------------------|----------------2-------4-------|
---------------------|-----------------------|--0----------0-------0-------0--|


                         PM PM      PM      PM                         
  Q    E  H        E     E  E  Q    E  Q    E     Q    E  H        E   
----------------------|------------------------|----------------------|
----------------------|------------------------|----------------------|
----------------------|------------------------|----------------------|
--5-------7-----------|--------2-------4-------|--5-------7-----------|
--5-------7-----------|--------2-------4-------|--5-------7-----------|
-------0--------------|--0--0-------0-------0--|-------0--------------|


  PM PM      PM      PM                           PM PM      PM      PM  
  E  E  Q    E  Q    E     Q    E  H        E     E  E  Q    E  Q    E   
------------------------|----------------------|------------------------|
------------------------|----------------------|------------------------|
------------------------|----------------------|------------------------|
--------2-------4-------|--5-------7-----------|--------2-------4-------|
--------2-------4-------|--5-------7-----------|--------2-------4-------|
--0--0-------0-------0--|-------0--------------|--0--0-------0-------0--|


                         Main Riff                       
                         PM        PM    PM PM    PM PM  
  Q    E  H        E     E         E  E  E  E  E  E  E   
----------------------|---------------------------------|
----------------------|---------------------------------|
----------------------|---------------------------------|
--5-------7-----------|---------------2--------4--------|
--5-------7-----------|---------------2--------4--------|
-------0--------------|--0---------0-----0--0-----0--0--|


     PM PM                 PM PM    PM PM    PM PM       PM PM               
  E  E  E  Q.      Q       E  E  E  E  E  E  E  E     E  E  E  Q.      Q     
------------------------|--------------------------|------------------------|
------------------------|--------------------------|------------------------|
------------------------|--------------------------|------------------------|
--5--------7~------7----|--------2--------4--------|--5--------7~------7----|
--5--------7~------7----|--------2--------4--------|--5--------7~------7----|
-----0--0---------------|--0--0-----0--0-----0--0--|-----0--0---------------|


  PM PM    PM PM    PM PM       PM PM                 PM PM    PM PM    PM PM  
  E  E  E  E  E  E  E  E     E  E  E  Q.      Q       E  E  E  E  E  E  E  E   
--------------------------|------------------------|--------------------------|
--------------------------|------------------------|--------------------------|
--------------------------|------------------------|--------------------------|
--------2--------4--------|--5--------7~------7----|--------2--------4--------|
--------2--------4--------|--5--------7~------7----|--------2--------4--------|
--0--0-----0--0-----0--0--|-----0--0---------------|--0--0-----0--0-----0--0--|


                           Verso                                  
     PM PM                                                        
  E  E  E  Q.      Q       W                   H.           Q     
------------------------|-------------------|--------------------|
------------------------|-------------------|--------------------|
------------------------|-------------------|---------------4----|
--5--------7~------7----|--4----------------|--L------------4----|
--5--------7~------7----|--2----------------|--L-----------------|
-----0--0---------------|-------------------|--------------------|


                                      SH           PM PM    PM PM    PM PM  
  W                   S S S S S E.    E  Q.        E  E  E  E  E  E  E  E   
-------------------|----------------------------|--------------------------|
-------------------|----------------------------|--------------------------|
-------------------|----------------------------|--------------------------|
--2----------------|------------5---<>7--5------|--------2--------4--------|
--0----------------|--------5-7-----------------|--------2--------4--------|
-------------------|--5-7-8---------------------|--0--0-----0--0-----0--0--|


     PM PM                 PM PM    PM PM    PM PM       PM PM                
  E  E  E  Q.      Q       E  E  E  E  E  E  E  E     E  E  E  Q    E  E  E   
------------------------|--------------------------|-------------------------|
------------------------|--------------------------|-------------------------|
------------------------|--------------------------|-------------------------|
--5--------7~------7----|--------2--------4--------|--5--------7----7--5-----|
--5--------7~------7----|--------2--------4--------|--5--------7----7--5-----|
-----0--0---------------|--0--0-----0--0-----0--0--|-----0--0----------------|


  W                   H.           Q       W                 
-------------------|--------------------|-------------------|
-------------------|--------------------|-------------------|
-------------------|---------------4----|-------------------|
--4----------------|--L------------4----|--2----------------|
--2----------------|--L-----------------|--0----------------|
-------------------|--------------------|-------------------|


                  SH           PM PM    PM PM    PM PM  
  S S S S S E.    E  Q.        E  E  E  E  E  E  E  E   
----------------------------|--------------------------|
----------------------------|--------------------------|
----------------------------|--------------------------|
------------5---<>7--5------|--------2--------4--------|
--------5-7-----------------|--------2--------4--------|
--5-7-8---------------------|--0--0-----0--0-----0--0--|


     PM PM                 PM PM    PM PM    PM PM       PM PM                
  E  E  E  Q.      Q       E  E  E  E  E  E  E  E     E  E  E  Q    E  E  E   
------------------------|--------------------------|-------------------------|
------------------------|--------------------------|-------------------------|
------------------------|--------------------------|-------------------------|
--5--------7~------7----|--------2--------4--------|--5--------7----7--5-----|
--5--------7~------7----|--------2--------4--------|--5--------7----7--5-----|
-----0--0---------------|--0--0-----0--0-----0--0--|-----0--0----------------|


  W                   H.           Q       W                 
-------------------|--------------------|-------------------|
-------------------|--------------------|-------------------|
-------------------|---------------4----|-------------------|
--4----------------|--L------------4----|--2----------------|
--2----------------|--L-----------------|--0----------------|
-------------------|--------------------|-------------------|


                  SH           PM PM    PM PM    PM PM  
  S S S S S E.    E  Q.        E  E  E  E  E  E  E  E   
----------------------------|--------------------------|
----------------------------|--------------------------|
----------------------------|--------------------------|
------------5---<>7--5------|--------2--------4--------|
--------5-7-----------------|--------2--------4--------|
--5-7-8---------------------|--0--0-----0--0-----0--0--|


     PM PM                 PM PM    PM PM    PM PM       PM PM                
  E  E  E  Q.      Q       E  E  E  E  E  E  E  E     E  E  E  Q    E  E  E   
------------------------|--------------------------|-------------------------|
------------------------|--------------------------|-------------------------|
------------------------|--------------------------|-------------------------|
--5--------7~------7----|--------2--------4--------|--5--------7----7--5-----|
--5--------7~------7----|--------2--------4--------|--5--------7----7--5-----|
-----0--0---------------|--0--0-----0--0-----0--0--|-----0--0----------------|


  Pre-Coro                                                        
  W                   Q    E   Q    Q    E      W                 
-------------------|-------------------------|-------------------|
-------------------|-------------------------|-------------------|
-------------------|-------------------------|-------------------|
--4----------------|--L----4S--2----2----2S--|--4----------------|
--2----------------|--L----2S--0----0----0S--|--2----------------|
-------------------|-------------------------|-------------------|


  Q    E   Q    Q    E      W                   Q    E   Q    Q    E    
-------------------------|-------------------|-------------------------|
-------------------------|-------------------|-------------------------|
-------------------------|-------------------|-------------------------|
--L----4S--2----2----2S--|--4----------------|--L----4S--2----2----2S--|
--L----2S--0----0----0S--|--2----------------|--L----2S--0----0----0S--|
-------------------------|-------------------|-------------------------|


                                               Coro              
  W                   Q    E   Q    Q    E     W                 
-------------------|------------------------|-------------------|
-------------------|------------------------|-------------------|
-------------------|------------------------|-------------------|
--4----------------|--L----4S--2----2----2--|--9----------------|
--2----------------|--L----2S--0----0----0--|--7----------------|
-------------------|------------------------|-------------------|


                   PM PM                                         PM PM  
  Q    E   Q    E  E  E     W                   Q    E   Q    E  E  E   
-------------------------|-------------------|-------------------------|
-------------------------|-------------------|-------------------------|
-------------------------|-------------------|-------------------------|
--L----9S--7----7--------|--9----------------|--L----9S--7----7--------|
--L----7S--5----5--7--5--|--7----------------|--L----7S--5----5--7--5--|
-------------------------|-------------------|-------------------------|


                                       PM PM                      
  W                   Q    E   Q    E  E  E     W                 
-------------------|-------------------------|-------------------|
-------------------|-------------------------|-------------------|
-------------------|-------------------------|-------------------|
--9----------------|--L----9S--7----7--------|--9----------------|
--7----------------|--L----7S--5----5--7--5--|--7----------------|
-------------------|-------------------------|-------------------|


                            Pre-Coro                                    
                   PM PM                                                
  Q    E   Q    E  E  E     W                   Q    E   Q    Q    E    
-------------------------|-------------------|-------------------------|
-------------------------|-------------------|-------------------------|
-------------------------|-------------------|-------------------------|
--L----9S--7----7--------|--4----------------|--L----4S--2----2----2S--|
--L----7S--5----5--7--5--|--2----------------|--L----2S--0----0----0S--|
-------------------------|-------------------|-------------------------|


  W                   Q    E   Q    Q    E      W                 
-------------------|-------------------------|-------------------|
-------------------|-------------------------|-------------------|
-------------------|-------------------------|-------------------|
--4----------------|--L----4S--2----2----2S--|--4----------------|
--2----------------|--L----2S--0----0----0S--|--2----------------|
-------------------|-------------------------|-------------------|


                           Puente                                      
  Q    E   Q    Q    E     Q.     Q.     Q       E  E  Q    Q    Q     
------------------------|--7------6------5----|--L--4--L----3----2----|
------------------------|--x------x------x----|--L--x--L----x----x----|
------------------------|--9------8------7----|--L--6--L----5----4----|
--L----4S--2----2----2--|---------------------|-----------------------|
--L----2S--0----0----0--|---------------------|-----------------------|
------------------------|---------------------|-----------------------|


                                                Intro Riff                     
                                                PM         PM      PM      PM  
  Q.     Q.     Q       E  E  Q    Q    Q       E          E  Q    E  Q    E   
--1------------------|-----------------------|--------------------------------|
--x------5------4----|--L--3--L----2----1----|--0----------L--L----L--L----L--|
--3------x------x----|--L--x--L----x----x----|--x-----------------------------|
---------7------6----|--L--5--L----4----3----|--2----------L--2-------4-------|
---------------------|-----------------------|----------------2-------4-------|
---------------------|-----------------------|--0----------0-------0-------0--|


                         PM PM      PM      PM                         
  Q    E  H        E     E  E  Q    E  Q    E     Q    E  H        E   
----------------------|------------------------|----------------------|
----------------------|------------------------|----------------------|
----------------------|------------------------|----------------------|
--5-------7-----------|--------2-------4-------|--5-------7-----------|
--5-------7-----------|--------2-------4-------|--5-------7-----------|
-------0--------------|--0--0-------0-------0--|-------0--------------|


  PM PM      PM      PM                           PM PM      PM      PM  
  E  E  Q    E  Q    E     Q    E  H        E     E  E  Q    E  Q    E   
------------------------|----------------------|------------------------|
------------------------|----------------------|------------------------|
------------------------|----------------------|------------------------|
--------2-------4-------|--5-------7-----------|--------2-------4-------|
--------2-------4-------|--5-------7-----------|--------2-------4-------|
--0--0-------0-------0--|-------0--------------|--0--0-------0-------0--|


                            Solo Mick Procter             
                            SH                SH          
  Q    E  H        E        H                 H           
----------------------|----------------------------------|
----------------------|--<>16b-------------<>16pb--------|
----------------------|----------------------------------|
--5-------7-----------|----------------------------------|
--5-------7-----------|----------------------------------|
-------0--------------|----------------------------------|


   |---3---|   |---3---|   |---3---|   |---3---|   
   E   E   E   E   E   E   E   E   E   E   E   E   
--------------------------------------------------|
--17--15--13--15--13--12--13--12------12----------|
----------------------------------14------14--12--|
--------------------------------------------------|
--------------------------------------------------|
--------------------------------------------------|


   |---3---|   |---3---|   |---3---|   |---3---|   
   E   E   E   E   E   E   E   E   E   E   E   E   
--------------------------------------------------|
--------------------------------------------------|
--14--12------12----------------------------------|
----------14------14--12--14--12------12----------|
----------------------------------14------14--12--|
--------------------------------------------------|


   |---3---|   |---3---|   |----3---|             
   E   E   E   E   E   E   E   E    E   E    E    
-------------------------------------------------|
------------------------------16b---L--16b--16b--|
----------------------12--14---------------------|
--------------12--14-----------------------------|
--14--12--14-------------------------------------|
-------------------------------------------------|


                                            \0/           
                |---3--|                                  
   Q     Q      E   E  E   Q          Q     H.            
----------------------------------|----------------------|
---L----11b----12--11--9--11br----|---L----11------------|
----------------------------------|----------------------|
----------------------------------|----------------------|
----------------------------------|----------------------|
----------------------------------|----------------------|


     SH                        SH                          
                                             |----3----|   
     H.             Q          H.            E    E    E   
-------------------------|--------------------------------|
--<>11br------------9----|--<>12~------------9h--11h--12--|
-------------------------|--------------------------------|
-------------------------|--------------------------------|
-------------------------|--------------------------------|
-------------------------|--------------------------------|


   H.             E    E       H.              Q     
---------------------------|------------------------|
--18b------------19b--19b--|--19br------------17----|
---------------------------|------------------------|
---------------------------|------------------------|
---------------------------|------------------------|
---------------------------|------------------------|


   |---3---|   |---3---|   |---3---|   |---3---|   
   E   E   E   E   E   E   E   E   E   E   E   E   
--------------------------------------17------17--|
----------17--19--17--19--20--19--20------20------|
--17--19------------------------------------------|
--------------------------------------------------|
--------------------------------------------------|
--------------------------------------------------|


   |---3---|   |---3---|   |---3---|   |---3---|   
   E   E   E   E   E   E   E   E   E   E   E   E   
--19--20--19--20--22--20--19----------------------|
------------------------------20--19--17----------|
------------------------------------------19--17--|
--------------------------------------------------|
--------------------------------------------------|
--------------------------------------------------|


   Q     E   E   E   E   E   E       W                 
---------------------------------|--------------------|
------------------------15--17~--|---L----------------|
--16----19--16--18--16-----------|--------------------|
---------------------------------|--------------------|
---------------------------------|--------------------|
---------------------------------|--------------------|


   |---3---|   |---3---|   |---3---|   |---3---|   
   E   E   E   E   E   E   E   E   E   E   E   E   
--------------------------------------------------|
--20--19--17--20--19--17--20--19--17--20--19--17--|
--------------------------------------------------|
--------------------------------------------------|
--------------------------------------------------|
--------------------------------------------------|


                                                                    \0/   
   |---3---|   |---3---|   |---3---|   |---3---|                          
   E   E   E   E   E   E   E   E   E   E   E   E      H.            Q     
--------------------------------------------------|--24-------------L----|
--24--22--20--24--22--20--24--22--20--24--22--20--|----------------------|
--------------------------------------------------|----------------------|
--------------------------------------------------|----------------------|
--------------------------------------------------|----------------------|
--------------------------------------------------|----------------------|


                        \0                     SH                  
   W                    W                      W                   
---L----------------|--24----------------|------------------------|
--------------------|--------------------|--<>20br----------------|
--------------------|--------------------|------------------------|
--------------------|--------------------|------------------------|
--------------------|--------------------|------------------------|
--------------------|--------------------|------------------------|


     W                      SH      SH  W                  
     W                      Q       E   E  Q     E    E    
----------------------|-----------------------------------|
--<>17----------------|--<>17----<>15--20--L----20~--20~--|
----------------------|-----------------------------------|
----------------------|-----------------------------------|
----------------------|-----------------------------------|
----------------------|-----------------------------------|


   W               W                  W          W             
   Q     E    E    Q     E    E       Q     E    E   H         
----------------------------------|---------------------------|
--20----20~--20~--20----20~--20~--|--20----20~--20---L--------|
----------------------------------|---------------------------|
----------------------------------|---------------------------|
----------------------------------|---------------------------|
----------------------------------|---------------------------|


  Outro                                                            
  Q     Q    Q    Q       Q    Q    Q    Q       W                 
-----------------------|----------------------|-------------------|
-----------------------|----------------------|-------------------|
-----------------------|----------------------|-------------------|
--9----------9---------|--9---------9---------|--9----------------|
--7----------7---------|--7---------7---------|--7----------------|
-----------------------|----------------------|-------------------|


  Pick-Slide                                                    
  S          S  S  S  S  S  S  S  S  S   S   S   S   S   S   S  
---------------------------------------------------------------|
---------------------------------------------------------------|
--0S---------1S-2S-3S-4S-5S-6S-7S-8S-9S-10S-11S-12S-13S-14S-15-|
--0S---------1S-2S-3S-4S-5S-6S-7S-8S-9S-10S-11S-12S-13S-14S-15-|
---------------------------------------------------------------|
---------------------------------------------------------------|


                                                           \0  
   S   S   S   S   S   S   S   S   S   S   S   S   S   S   E   
---------------------------------------------------------<>7--|
--------------------------------------------------------------|
--16S-17S-18S-19S-20S-21S-22S-23S-24S-25S-26S-27S-28S-29------|
--16S-17S-18S-19S-20S-21S-22S-23S-24S-25S-26S-27S-28S-29------|
--------------------------------------------------------------|
--------------------------------------------------------------|


  W                   H        H            W                 
--L----------------|--L--------L~--------|--L----------------|
-------------------|---------------------|-------------------|
-------------------|---------------------|-------------------|
-------------------|---------------------|-------------------|
-------------------|---------------------|-------------------|
-------------------|---------------------|-------------------|


  W                 
--L----------------|
-------------------|
-------------------|
-------------------|
-------------------|
-------------------|


   Pick-Slide                                                                   
   |-------3------|   |---3---|   |---3---|   |---3---|   |---3---|   |---3---| 
   S          S   S   S   S   S   S   S   S   S   S   S   S   S   S   S   S   S 
--------------------------------------------------------------------------------
--------------------------------------------------------------------------------
--------------------------------------------------------------------------------
--30S--------29S-28S-27S-26S-25S-24S-23S-22S-21S-29S-28S-27S-26S-25S-24S-23S-22S
--------------------------------------------------------------------------------
--30S--------29S-28S-27S-26S-25S-24S-23S-22S-21S-29S-28S-27S-26S-25S-24S-23S-22S


   |---3---|   |---3---|   |---3---|   |---3---|   |---3---|   |---3---|   |---3
   S   S   S   S   S   S   S   S   S   S   S   S   S   S   S   S   S   S   S   S
--------------------------------------------------------------------------------
--------------------------------------------------------------------------------
--------------------------------------------------------------------------------
--24S-23S-22S-21S-20S-19S-18S-17S-27S-26S-25S-24S-23S-22S-21S-20S-19S-18S-26S-25
--------------------------------------------------------------------------------
--24S-23S-22S-21S-20S-19S-18S-17S-27S-26S-25S-24S-23S-22S-21S-20S-19S-18S-26S-25


   |---3---|   |---3---|   |---3---|   |---3---|   |---3---|   |---3---|   |---3
   S   S   S   S   S   S   S   S   S   S   S   S   S   S   S   S   S   S   S   S
--------------------------------------------------------------------------------
--------------------------------------------------------------------------------
--------------------------------------------------------------------------------
--26S-25S-24S-23S-22S-21S-20S-19S-18S-17S-25S-24S-23S-22S-21S-20S-19S-18S-24S-23
--------------------------------------------------------------------------------
--26S-25S-24S-23S-22S-21S-20S-19S-18S-17S-25S-24S-23S-22S-21S-20S-19S-18S-24S-23


   |---3---|   |---3---|   |---3---|   |---3---|   |---3---|   |---3---|   |---3
   S   S   S   S   S   S   S   S   S   S   S   S   S   S   S   S   S   S   S   S
--------------------------------------------------------------------------------
--------------------------------------------------------------------------------
--------------------------------------------------------------------------------
--23S-22S-21S-20S-19S-18S-17S-16S-15S-22S-21S-20S-19S-18S-17S-16S-15S-14S-13S-12
--------------------------------------------------------------------------------
--23S-22S-21S-20S-19S-18S-17S-16S-15S-22S-21S-20S-19S-18S-17S-16S-15S-14S-13S-12


   |---3---|   |---3---|   |---3---|   |---3---|   |---3--|   |---3---|  |---3--
   S   S   S   S   S   S   S   S   S   S   S   S   S   S  S   S   S   S  S   S  
--------------------------------------------------------------------------------
--------------------------------------------------------------------------------
--------------------------------------------------------------------------------
--17S-16S-15S-14S-13S-12S-17S-16S-15S-14S-13S-12S-11S-10S-9S-20S-19S-18-17S-16S-
--------------------------------------------------------------------------------
--17S-16S-15S-14S-13S-12S-17S-16S-15S-14S-13S-12S-11S-10S-9S-20S-19S-18-17S-16S-


  W                   H        H            W                  
--L----------------|--L--------L~--------|--L----------------||
-------------------|---------------------|-------------------||
-------------------|---------------------|-------------------||
-------------------|---------------------|-------------------||
-------------------|---------------------|-------------------||
-------------------|---------------------|-------------------||



Guitar #2:

Jim Sirroto


                     Intro                                                     
                     W                   W                   W                 
E||-------|-------|-------------------|-------------------|-------------------|
B||-------|-------|-------------------|-------------------|-------------------|
G||-------|-------|-------------------|-------------------|-------------------|
D||-------|-------|--2----------------|--L----------------|--2----------------|
A||-------|-------|--2----------------|--L----------------|--2----------------|
E||-------|-------|--0----------------|--L----------------|--0----------------|


  W                   W                   W                   W                 
-------------------|-------------------|-------------------|-------------------|
-------------------|-------------------|-------------------|-------------------|
-------------------|-------------------|-------------------|-------------------|
--L----------------|--2----------------|--L----------------|--2----------------|
--L----------------|--2----------------|--L----------------|--2----------------|
--L----------------|--0----------------|--L----------------|--0----------------|


                      Main Riff                                             
                      PM        PM      PM      PM                          
  W                   E         E  Q    E  Q    E     Q    E  E   H         
-------------------|-------------------------------|-----------------------|
-------------------|-------------------------------|-----------------------|
-------------------|-------------------------------|-----------------------|
--L----------------|---------------2-------4-------|--5-------7~--L--------|
--L----------------|---------------2-------4-------|--5-------7~--L--------|
--L----------------|--0---------0-------0-------0--|-------0---------------|


  PM PM      PM      PM                            PM PM      PM      PM  
  E  E  Q    E  Q    E     Q    E  E   H           E  E  Q    E  Q    E   
------------------------|-----------------------|------------------------|
------------------------|-----------------------|------------------------|
------------------------|-----------------------|------------------------|
--------2-------4-------|--5-------7~--L--------|--------2-------4-------|
--------2-------4-------|--5-------7~--L--------|--------2-------4-------|
--0--0-------0-------0--|-------0---------------|--0--0-------0-------0--|


                          PM PM      PM      PM                          
  Q    E  E   H           E  E  Q    E  Q    E     Q    E  E   H         
-----------------------|------------------------|-----------------------|
-----------------------|------------------------|-----------------------|
-----------------------|------------------------|-----------------------|
--5-------7~--L--------|--------2-------4-------|--5-------7~--L--------|
--5-------7~--L--------|--------2-------4-------|--5-------7~--L--------|
-------0---------------|--0--0-------0-------0--|-------0---------------|


  Verso                                                      
  W                   H.           Q       W                 
-------------------|--------------------|-------------------|
-------------------|--------------------|-------------------|
-------------------|--------------------|-------------------|
--9----------------|--L------------9----|--7----------------|
--9----------------|--L------------9----|--7----------------|
--7----------------|--L-----------------|--5----------------|


                      SH           PM PM      PM      PM  
  S  S   S S  S E.    E  Q.        E  E  Q    E  Q    E   
--------------------------------|------------------------|
--------------------------------|------------------------|
----------------7---<>9--7------|------------------------|
-----------7h-9-----------------|--------2-------4-------|
--7h-9h-10----------------------|--------2-------4-------|
--------------------------------|--0--0-------0-------0--|


                          PM PM      PM      PM         PM                
  Q    E  E   H           E  E  Q    E  Q    E     Q    E  Q    E  E  E   
-----------------------|------------------------|------------------------|
-----------------------|------------------------|------------------------|
-----------------------|------------------------|------------------------|
--5-------7~--L--------|--------2-------4-------|--5-------7-------------|
--5-------7~--L--------|--------2-------4-------|--5-------7----7--5-----|
-------0---------------|--0--0-------0-------0--|-------0-------5--3-----|


  W                   H.           Q       W                 
-------------------|--------------------|-------------------|
-------------------|--------------------|-------------------|
-------------------|--------------------|-------------------|
--9----------------|--L------------9----|--7----------------|
--9----------------|--L------------9----|--7----------------|
--7----------------|--L-----------------|--5----------------|


                      SH           PM PM      PM      PM  
  S  S   S S  S E.    E  Q.        E  E  Q    E  Q    E   
--------------------------------|------------------------|
--------------------------------|------------------------|
----------------7---<>9--7------|------------------------|
-----------7h-9-----------------|--------2-------4-------|
--7h-9h-10----------------------|--------2-------4-------|
--------------------------------|--0--0-------0-------0--|


                          PM PM      PM      PM         PM                
  Q    E  E   H           E  E  Q    E  Q    E     Q    E  Q    E  E  E   
-----------------------|------------------------|------------------------|
-----------------------|------------------------|------------------------|
-----------------------|------------------------|------------------------|
--5-------7~--L--------|--------2-------4-------|--5-------7-------------|
--5-------7~--L--------|--------2-------4-------|--5-------7----7--5-----|
-------0---------------|--0--0-------0-------0--|-------0-------5--3-----|


  W                   H.           Q       W                 
-------------------|--------------------|-------------------|
-------------------|--------------------|-------------------|
-------------------|--------------------|-------------------|
--9----------------|--L------------9----|--7----------------|
--9----------------|--L------------9----|--7----------------|
--7----------------|--L-----------------|--5----------------|


                      SH           PM PM      PM      PM  
  S  S   S S  S E.    E  Q.        E  E  Q    E  Q    E   
--------------------------------|------------------------|
--------------------------------|------------------------|
----------------7---<>9--7------|------------------------|
-----------7h-9-----------------|--------2-------4-------|
--7h-9h-10----------------------|--------2-------4-------|
--------------------------------|--0--0-------0-------0--|


                          PM PM      PM      PM         PM                
  Q    E  E   H           E  E  Q    E  Q    E     Q    E  Q    E  E  E   
-----------------------|------------------------|------------------------|
-----------------------|------------------------|------------------------|
-----------------------|------------------------|------------------------|
--5-------7~--L--------|--------2-------4-------|--5-------7-------------|
--5-------7~--L--------|--------2-------4-------|--5-------7----7--5-----|
-------0---------------|--0--0-------0-------0--|-------0-------5--3-----|


  Pre-Coro                                                        
  W                   Q    E   Q    Q    E      W                 
-------------------|-------------------------|-------------------|
-------------------|-------------------------|-------------------|
-------------------|-------------------------|-------------------|
-------------------|-------------------------|-------------------|
--9----------------|--L----9S--7----7----7S--|--9----------------|
--7----------------|--L----7S--5----5----5S--|--7----------------|


  Q    E   Q    Q    E      W                   Q    E   Q    Q    E    
-------------------------|-------------------|-------------------------|
-------------------------|-------------------|-------------------------|
-------------------------|-------------------|-------------------------|
-------------------------|-------------------|-------------------------|
--L----9S--7----7----7S--|--9----------------|--L----9S--7----7----7S--|
--L----7S--5----5----5S--|--7----------------|--L----7S--5----5----5S--|


                                               Coro              
  W                   Q    E   Q    Q    E     W                 
-------------------|------------------------|-------------------|
-------------------|------------------------|-------------------|
-------------------|------------------------|-------------------|
-------------------|------------------------|--9----------------|
--9----------------|--L----9S--7----7----7--|--7----------------|
--7----------------|--L----7S--5----5----5--|-------------------|


  Q    E  E  Q    Q       W                   Q    E  E  Q    Q     
-----------------------|-------------------|-----------------------|
-----------------------|-------------------|-----------------------|
----------7--L---------|-------------------|----------7--L---------|
--L----9--7--L----9----|--9----------------|--L----9--7--L----9----|
--L----9----------9----|--7----------------|--L----9----------9----|
-----------------------|-------------------|-----------------------|


  W                   Q    E  E  Q    Q       W                 
-------------------|-----------------------|-------------------|
-------------------|-----------------------|-------------------|
-------------------|----------7--L---------|-------------------|
--9----------------|--L----9--7--L----9----|--9----------------|
--7----------------|--L----9----------9----|--7----------------|
-------------------|-----------------------|-------------------|


                          Pre-Coro                                    
  Q    E  E  Q    Q       W                   Q    E   Q    Q    E    
-----------------------|-------------------|-------------------------|
-----------------------|-------------------|-------------------------|
----------7--L---------|-------------------|-------------------------|
--L----9--7--L----9----|-------------------|-------------------------|
--L----9----------9----|--9----------------|--L----9S--7----7----7S--|
-----------------------|--7----------------|--L----7S--5----5----5S--|


  W                   Q    E   Q    Q    E      W                 
-------------------|-------------------------|-------------------|
-------------------|-------------------------|-------------------|
-------------------|-------------------------|-------------------|
-------------------|-------------------------|-------------------|
--9----------------|--L----9S--7----7----7S--|--9----------------|
--7----------------|--L----7S--5----5----5S--|--7----------------|


                           Puente                                      
  Q    E   Q    Q    E     Q.     Q.     Q       E  E  Q    Q    Q     
------------------------|---------------------|-----------------------|
------------------------|---------------------|-----------------------|
------------------------|--9------8------7----|--L--6--L----5----4----|
------------------------|--9------8------7----|--L--6--L----5----4----|
--L----9S--7----7----7--|---------------------|-----------------------|
--L----7S--5----5----5--|---------------------|-----------------------|


                                                Intro Riff        
  Q.     Q.     Q       E  E  Q    Q    Q       W                 
---------------------|-----------------------|-------------------|
---------------------|-----------------------|-------------------|
--3------2------1----|--L--------------------|-------------------|
--3------2------1----|--L--5--L----4----3----|--2----------------|
---------------------|-----5--L----4----3----|--2----------------|
---------------------|-----------------------|--0----------------|


  W                   W                   W                   W                 
-------------------|-------------------|-------------------|-------------------|
-------------------|-------------------|-------------------|-------------------|
-------------------|-------------------|-------------------|-------------------|
--L----------------|--2----------------|--L----------------|--2----------------|
--L----------------|--2----------------|--L----------------|--2----------------|
--L----------------|--0----------------|--L----------------|--0----------------|


  W                   W                   W                 
-------------------|-------------------|-------------------|
-------------------|-------------------|-------------------|
-------------------|-------------------|-------------------|
--L----------------|--2----------------|--L----------------|
--L----------------|--2----------------|--L----------------|
--L----------------|--0----------------|--L----------------|


  Main Riff                                             
  PM        PM      PM      PM                          
  E         E  Q    E  Q    E     Q    E  E   H         
-------------------------------|-----------------------|
-------------------------------|-----------------------|
-------------------------------|-----------------------|
---------------2-------4-------|--5-------7~--L--------|
---------------2-------4-------|--5-------7~--L--------|
--0---------0-------0-------0--|-------0---------------|


  PM PM      PM      PM                            PM PM      PM      PM  
  E  E  Q    E  Q    E     Q    E  E   H           E  E  Q    E  Q    E   
------------------------|-----------------------|------------------------|
------------------------|-----------------------|------------------------|
------------------------|-----------------------|------------------------|
--------2-------4-------|--5-------7~--L--------|--------2-------4-------|
--------2-------4-------|--5-------7~--L--------|--------2-------4-------|
--0--0-------0-------0--|-------0---------------|--0--0-------0-------0--|


                          PM PM      PM      PM                          
  Q    E  E   H           E  E  Q    E  Q    E     Q    E  E   H         
-----------------------|------------------------|-----------------------|
-----------------------|------------------------|-----------------------|
-----------------------|------------------------|-----------------------|
--5-------7~--L--------|--------2-------4-------|--5-------7~--L--------|
--5-------7~--L--------|--------2-------4-------|--5-------7~--L--------|
-------0---------------|--0--0-------0-------0--|-------0---------------|


  Verso                                                      
  W                   H.           Q       W                 
-------------------|--------------------|-------------------|
-------------------|--------------------|-------------------|
-------------------|--------------------|-------------------|
--9----------------|--L------------9----|--7----------------|
--9----------------|--L------------9----|--7----------------|
--7----------------|--L-----------------|--5----------------|


                      SH           PM PM      PM      PM  
  S  S   S S  S E.    E  Q.        E  E  Q    E  Q    E   
--------------------------------|------------------------|
--------------------------------|------------------------|
----------------7---<>9--7------|------------------------|
-----------7h-9-----------------|--------2-------4-------|
--7h-9h-10----------------------|--------2-------4-------|
--------------------------------|--0--0-------0-------0--|


                          PM PM      PM      PM         PM                
  Q    E  E   H           E  E  Q    E  Q    E     Q    E  Q    E  E  E   
-----------------------|------------------------|------------------------|
-----------------------|------------------------|------------------------|
-----------------------|------------------------|------------------------|
--5-------7~--L--------|--------2-------4-------|--5-------7-------------|
--5-------7~--L--------|--------2-------4-------|--5-------7----7--5-----|
-------0---------------|--0--0-------0-------0--|-------0-------5--3-----|


  W                   H.           Q       W                 
-------------------|--------------------|-------------------|
-------------------|--------------------|-------------------|
-------------------|--------------------|-------------------|
--9----------------|--L------------9----|--7----------------|
--9----------------|--L------------9----|--7----------------|
--7----------------|--L-----------------|--5----------------|


                      SH           PM PM      PM      PM  
  S  S   S S  S E.    E  Q.        E  E  Q    E  Q    E   
--------------------------------|------------------------|
--------------------------------|------------------------|
----------------7---<>9--7------|------------------------|
-----------7h-9-----------------|--------2-------4-------|
--7h-9h-10----------------------|--------2-------4-------|
--------------------------------|--0--0-------0-------0--|


                          PM PM      PM      PM         PM                
  Q    E  E   H           E  E  Q    E  Q    E     Q    E  Q    E  E  E   
-----------------------|------------------------|------------------------|
-----------------------|------------------------|------------------------|
-----------------------|------------------------|------------------------|
--5-------7~--L--------|--------2-------4-------|--5-------7-------------|
--5-------7~--L--------|--------2-------4-------|--5-------7----7--5-----|
-------0---------------|--0--0-------0-------0--|-------0-------5--3-----|


  W                   H.           Q       W                 
-------------------|--------------------|-------------------|
-------------------|--------------------|-------------------|
-------------------|--------------------|-------------------|
--9----------------|--L------------9----|--7----------------|
--9----------------|--L------------9----|--7----------------|
--7----------------|--L-----------------|--5----------------|


                      SH           PM PM      PM      PM  
  S  S   S S  S E.    E  Q.        E  E  Q    E  Q    E   
--------------------------------|------------------------|
--------------------------------|------------------------|
----------------7---<>9--7------|------------------------|
-----------7h-9-----------------|--------2-------4-------|
--7h-9h-10----------------------|--------2-------4-------|
--------------------------------|--0--0-------0-------0--|


                          PM PM      PM      PM         PM                
  Q    E  E   H           E  E  Q    E  Q    E     Q    E  Q    E  E  E   
-----------------------|------------------------|------------------------|
-----------------------|------------------------|------------------------|
-----------------------|------------------------|------------------------|
--5-------7~--L--------|--------2-------4-------|--5-------7-------------|
--5-------7~--L--------|--------2-------4-------|--5-------7----7--5-----|
-------0---------------|--0--0-------0-------0--|-------0-------5--3-----|


  Pre-Coro                                                        
  W                   Q    E   Q    Q    E      W                 
-------------------|-------------------------|-------------------|
-------------------|-------------------------|-------------------|
-------------------|-------------------------|-------------------|
-------------------|-------------------------|-------------------|
--9----------------|--L----9S--7----7----7S--|--9----------------|
--7----------------|--L----7S--5----5----5S--|--7----------------|


  Q    E   Q    Q    E      W                   Q    E   Q    Q    E    
-------------------------|-------------------|-------------------------|
-------------------------|-------------------|-------------------------|
-------------------------|-------------------|-------------------------|
-------------------------|-------------------|-------------------------|
--L----9S--7----7----7S--|--9----------------|--L----9S--7----7----7S--|
--L----7S--5----5----5S--|--7----------------|--L----7S--5----5----5S--|


                                               Coro              
  W                   Q    E   Q    Q    E     W                 
-------------------|------------------------|-------------------|
-------------------|------------------------|-------------------|
-------------------|------------------------|-------------------|
-------------------|------------------------|--9----------------|
--9----------------|--L----9S--7----7----7--|--7----------------|
--7----------------|--L----7S--5----5----5--|-------------------|


  Q    E  E  Q    Q       W                   Q    E  E  Q    Q     
-----------------------|-------------------|-----------------------|
-----------------------|-------------------|-----------------------|
----------7--L---------|-------------------|----------7--L---------|
--L----9--7--L----9----|--9----------------|--L----9--7--L----9----|
--L----9----------9----|--7----------------|--L----9----------9----|
-----------------------|-------------------|-----------------------|


  W                   Q    E  E  Q    Q       W                 
-------------------|-----------------------|-------------------|
-------------------|-----------------------|-------------------|
-------------------|----------7--L---------|-------------------|
--9----------------|--L----9--7--L----9----|--9----------------|
--7----------------|--L----9----------9----|--7----------------|
-------------------|-----------------------|-------------------|


                          Pre-Coro                                    
  Q    E  E  Q    Q       W                   Q    E   Q    Q    E    
-----------------------|-------------------|-------------------------|
-----------------------|-------------------|-------------------------|
----------7--L---------|-------------------|-------------------------|
--L----9--7--L----9----|-------------------|-------------------------|
--L----9----------9----|--9----------------|--L----9S--7----7----7S--|
-----------------------|--7----------------|--L----7S--5----5----5S--|


  W                   Q    E   Q    Q    E      W                 
-------------------|-------------------------|-------------------|
-------------------|-------------------------|-------------------|
-------------------|-------------------------|-------------------|
-------------------|-------------------------|-------------------|
--9----------------|--L----9S--7----7----7S--|--9----------------|
--7----------------|--L----7S--5----5----5S--|--7----------------|


                           Puente                                      
  Q    E   Q    Q    E     Q.     Q.     Q       E  E  Q    Q    Q     
------------------------|---------------------|-----------------------|
------------------------|---------------------|-----------------------|
------------------------|--9------8------7----|--L--6--L----5----4----|
------------------------|--9------8------7----|--L--6--L----5----4----|
--L----9S--7----7----7--|---------------------|-----------------------|
--L----7S--5----5----5--|---------------------|-----------------------|


                                                Intro Riff        
  Q.     Q.     Q       E  E  Q    Q    Q       W                 
---------------------|-----------------------|-------------------|
---------------------|-----------------------|-------------------|
--3------2------1----|--L--------------------|-------------------|
--3------2------1----|--L--5--L----4----3----|--2----------------|
---------------------|-----5--L----4----3----|--2----------------|
---------------------|-----------------------|--0----------------|


  W                   W                   W                   W                 
-------------------|-------------------|-------------------|-------------------|
-------------------|-------------------|-------------------|-------------------|
-------------------|-------------------|-------------------|-------------------|
--L----------------|--2----------------|--L----------------|--2----------------|
--L----------------|--2----------------|--L----------------|--2----------------|
--L----------------|--0----------------|--L----------------|--0----------------|


  W                   W                   W                 
-------------------|-------------------|-------------------|
-------------------|-------------------|-------------------|
-------------------|-------------------|-------------------|
--L----------------|--2----------------|--L----------------|
--L----------------|--2----------------|--L----------------|
--L----------------|--0----------------|--L----------------|


  Solo Mick Procter                                                
  PM                PM    PM PM    PM PM       PM PM               
  E                 E  E  E  E  E  E  E     E  E  E  Q.      Q     
-----------------------------------------|------------------------|
-----------------------------------------|------------------------|
-----------------------------------------|------------------------|
-----------------------2--------4--------|--5--------7~------7----|
-----------------------2--------4--------|--5--------7~------7----|
--0-----------------0-----0--0-----0--0--|-----0--0---------------|


  PM PM    PM PM    PM PM       PM PM                  PM PM    PM PM    PM PM  
  E  E  E  E  E  E  E  E     E  E  E  Q    E  E  E     E  E  E  E  E  E  E  E   
--------------------------|-------------------------|--------------------------|
--------------------------|-------------------------|--------------------------|
--------------------------|-------------------------|--------------------------|
--------2--------4--------|--5--------7----7--5-----|--------2--------4--------|
--------2--------4--------|--5--------7----7--5-----|--------2--------4--------|
--0--0-----0--0-----0--0--|-----0--0----------------|--0--0-----0--0-----0--0--|


     PM PM                 PM PM    PM PM    PM PM       PM PM                
  E  E  E  Q.      Q       E  E  E  E  E  E  E  E     E  E  E  Q    E  E  E   
------------------------|--------------------------|-------------------------|
------------------------|--------------------------|-------------------------|
------------------------|--------------------------|-------------------------|
--5--------7~------7----|--------2--------4--------|--5--------7----7--5-----|
--5--------7~------7----|--------2--------4--------|--5--------7----7--5-----|
-----0--0---------------|--0--0-----0--0-----0--0--|-----0--0----------------|


  PM PM    PM PM    PM PM       PM PM                 PM PM    PM PM    PM PM  
  E  E  E  E  E  E  E  E     E  E  E  Q.      Q       E  E  E  E  E  E  E  E   
--------------------------|------------------------|--------------------------|
--------------------------|------------------------|--------------------------|
--------------------------|------------------------|--------------------------|
--------2--------4--------|--5--------7~------7----|--------2--------4--------|
--------2--------4--------|--5--------7~------7----|--------2--------4--------|
--0--0-----0--0-----0--0--|-----0--0---------------|--0--0-----0--0-----0--0--|


     PM PM                  PM PM    PM PM    PM PM       PM PM               
  E  E  E  Q    E  E  E     E  E  E  E  E  E  E  E     E  E  E  Q.      Q     
-------------------------|--------------------------|------------------------|
-------------------------|--------------------------|------------------------|
-------------------------|--------------------------|------------------------|
--5--------7----7--5-----|--------2--------4--------|--5--------7~------7----|
--5--------7----7--5-----|--------2--------4--------|--5--------7~------7----|
-----0--0----------------|--0--0-----0--0-----0--0--|-----0--0---------------|


  PM PM    PM PM    PM PM       PM PM                  PM PM    PM PM    PM PM  
  E  E  E  E  E  E  E  E     E  E  E  Q    E  E  E     E  E  E  E  E  E  E  E   
--------------------------|-------------------------|--------------------------|
--------------------------|-------------------------|--------------------------|
--------------------------|-------------------------|--------------------------|
--------2--------4--------|--5--------7----7--5-----|--------2--------4--------|
--------2--------4--------|--5--------7----7--5-----|--------2--------4--------|
--0--0-----0--0-----0--0--|-----0--0----------------|--0--0-----0--0-----0--0--|


     PM PM                 PM PM    PM PM    PM PM       PM PM                
  E  E  E  Q.      Q       E  E  E  E  E  E  E  E     E  E  E  Q    E  E  E   
------------------------|--------------------------|-------------------------|
------------------------|--------------------------|-------------------------|
------------------------|--------------------------|-------------------------|
--5--------7~------7----|--------2--------4--------|--5--------7----7--5-----|
--5--------7~------7----|--------2--------4--------|--5--------7----7--5-----|
-----0--0---------------|--0--0-----0--0-----0--0--|-----0--0----------------|


  PM PM    PM PM    PM PM       PM PM                 PM PM    PM PM    PM PM  
  E  E  E  E  E  E  E  E     E  E  E  Q.      Q       E  E  E  E  E  E  E  E   
--------------------------|------------------------|--------------------------|
--------------------------|------------------------|--------------------------|
--------------------------|------------------------|--------------------------|
--------2--------4--------|--5--------7~------7----|--------2--------4--------|
--------2--------4--------|--5--------7~------7----|--------2--------4--------|
--0--0-----0--0-----0--0--|-----0--0---------------|--0--0-----0--0-----0--0--|


                            Outro                                        
     PM PM                                                               
  E  E  E  Q    E  E  E     Q     Q    Q    Q       Q    Q    Q    Q     
-------------------------|-----------------------|----------------------|
-------------------------|-----------------------|----------------------|
-------------------------|-----------------------|----------------------|
--5--------7----7--5-----|-----------------------|----------------------|
--5--------7----7--5-----|--2----------2---------|--2---------2---------|
-----0--0----------------|--0----------0---------|--0---------0---------|


  W                   W                   W                   W                 
-------------------|-------------------|-------------------|-------------------|
-------------------|-------------------|-------------------|-------------------|
-------------------|-------------------|-------------------|-------------------|
--2----------------|--L----------------|--L----------------|--L----------------|
--2----------------|--L----------------|--L----------------|--L----------------|
--0----------------|--L----------------|--L----------------|--L----------------|


  W                   W                   W                 
-------------------|-------------------|-------------------|
-------------------|-------------------|-------------------|
-------------------|-------------------|-------------------|
--L----------------|--L----------------|--L----------------|
--L----------------|--L----------------|--L----------------|
--L----------------|--L----------------|--L----------------|


  |------3------|  |--3-|  |-3|       |------3------|  |--3-|  |-3|     
  E  E  Q    E  E  Q    E  E  Q       E  E  Q    E  E  Q    E  E  Q     
-----------------------------------|-----------------------------------|
-----------------------------------|-----------------------------------|
-----------------------------------|-----------------------------------|
-----------------------------------|-----------------------------------|
-----------------------------------|-----------------------------------|
--7--5--L----7--5--L----7--5--L----|--7--5--L----7--5--L----7--5--L----|


  |------3------|  |--3-|  |-3|       |------3------|  |--3-|  |-3|     
  E  E  Q    E  E  Q    E  E  Q       E  E  Q    E  E  Q    E  E  Q     
-----------------------------------|-----------------------------------|
-----------------------------------|-----------------------------------|
-----------------------------------|-----------------------------------|
-----------------------------------|-----------------------------------|
-----------------------------------|-----------------------------------|
--7--5--L----7--5--L----7--5--L----|--7--5--L----7--5--L----7--5--L----|


  |------3------|  |--3-|  |-3|       |------3------|  |--3-|  |-3|     
  E  E  Q    E  E  Q    E  E  Q       E  E  Q    E  E  Q    E  E  Q     
-----------------------------------|-----------------------------------|
-----------------------------------|-----------------------------------|
-----------------------------------|-----------------------------------|
-----------------------------------|-----------------------------------|
-----------------------------------|-----------------------------------|
--7--5--L----7--5--L----7--5--L----|--7--5--L----7--5--L----7--5--L----|


  |------3------|  |--3-|  |-3|                           
  E  E  Q    E  E  Q    E  E  Q       H        H          
-----------------------------------|--------------------||
-----------------------------------|--------------------||
-----------------------------------|--------------------||
-----------------------------------|--------------------||
-----------------------------------|--------------------||
--7--5--L----7--5--L----7--5--L----|--7-----------------||




Guitar #3:

Jim Sirroto


                              Intro                                 
     S    W                   W                   W                 
E||----|-------------------|-------------------|-------------------|
B||----|-------------------|-------------------|-------------------|
G||----|-------------------|-------------------|-------------------|
D||----|-------------------|--9----------------|--L----------------|
A||----|-------------------|--7----------------|--L----------------|
E||----|-------------------|-------------------|-------------------|


  W                   W                   W                   W                 
-------------------|-------------------|-------------------|-------------------|
-------------------|-------------------|-------------------|-------------------|
-------------------|-------------------|-------------------|-------------------|
--9----------------|--L----------------|--9----------------|--L----------------|
--7----------------|--L----------------|--7----------------|--L----------------|
-------------------|-------------------|-------------------|-------------------|


                                          Main Riff                     
                                          PM        PM      PM      PM  
  W                   W                   E         E  Q    E  Q    E   
-------------------|-------------------|-------------------------------|
-------------------|-------------------|-------------------------------|
-------------------|-------------------|-------------------------------|
--9----------------|--L----------------|-------------------------------|
--7----------------|--L----------------|---------------2-------4-------|
-------------------|-------------------|--0---------0--0----0--2----0--|


                         PM PM      PM      PM                         
  Q    E  E  H           E  E  Q    E  Q    E     Q    E  E  H         
----------------------|------------------------|----------------------|
----------------------|------------------------|----------------------|
----------------------|------------------------|----------------------|
----------------------|------------------------|----------------------|
--5-------7--L--------|--------2-------4-------|--5-------7--L--------|
--3----0--5--L--------|--0--0--0----0--2----0--|--3----0--5--L--------|


  PM PM      PM      PM                           PM PM      PM      PM  
  E  E  Q    E  Q    E     Q    E  E  H           E  E  Q    E  Q    E   
------------------------|----------------------|------------------------|
------------------------|----------------------|------------------------|
------------------------|----------------------|------------------------|
------------------------|----------------------|------------------------|
--------2-------4-------|--5-------7--L--------|--------2-------4-------|
--0--0--0----0--2----0--|--3----0--5--L--------|--0--0--0----0--2----0--|


                         Verso                                 
  Q    E  E  H           W                   W                 
----------------------|-------------------|-------------------|
----------------------|-------------------|-------------------|
----------------------|-------------------|-------------------|
----------------------|--4----------------|--L----------------|
--5-------7--L--------|--2----------------|--L----------------|
--3----0--5--L--------|-------------------|-------------------|


                                               PM PM      PM      PM  
  W                   E  E  E  E  E  Q.        E  E  Q    E  Q    E   
-------------------|------------------------|------------------------|
-------------------|------------------------|------------------------|
-------------------|------------------------|------------------------|
-------------------|------------------------|------------------------|
--7----------------|--------5--7--7--5------|--------2-------4-------|
--5----------------|--5--7--------5--3------|--0--0--0----0--2----0--|


                         PM PM      PM      PM                         
  Q    E  E  H           E  E  Q    E  Q    E     Q    E  E  H         
----------------------|------------------------|----------------------|
----------------------|------------------------|----------------------|
----------------------|------------------------|----------------------|
----------------------|------------------------|----------------------|
--5-------7--L--------|--------2-------4-------|--5-------7--L--------|
--3----0--5--L--------|--0--0--0----0--2----0--|--3----0--5--L--------|


  W                   W                   W                 
-------------------|-------------------|-------------------|
-------------------|-------------------|-------------------|
-------------------|-------------------|-------------------|
--4----------------|--L----------------|-------------------|
--2----------------|--L----------------|--7----------------|
-------------------|-------------------|--5----------------|


                           PM PM      PM      PM                         
  E  E  E  E  E  Q.        E  E  Q    E  Q    E     Q    E  E  H         
------------------------|------------------------|----------------------|
------------------------|------------------------|----------------------|
------------------------|------------------------|----------------------|
------------------------|------------------------|----------------------|
--------5--7--7--5------|--------2-------4-------|--5-------7--L--------|
--5--7--------5--3------|--0--0--0----0--2----0--|--3----0--5--L--------|


  PM PM      PM      PM                                             
  E  E  Q    E  Q    E     Q    E  E  H           W                 
------------------------|----------------------|-------------------|
------------------------|----------------------|-------------------|
------------------------|----------------------|-------------------|
------------------------|----------------------|--4----------------|
--------2-------4-------|--5-------7--L--------|--2----------------|
--0--0--0----0--2----0--|--3----0--5--L--------|-------------------|


  W                   W                   E  E  E  E  E  Q.      
-------------------|-------------------|------------------------|
-------------------|-------------------|------------------------|
-------------------|-------------------|------------------------|
--L----------------|-------------------|------------------------|
--L----------------|--7----------------|--------5--7--7--5------|
-------------------|--5----------------|--5--7--------5--3------|


  PM PM      PM      PM                           PM PM      PM      PM  
  E  E  Q    E  Q    E     Q    E  E  H           E  E  Q    E  Q    E   
------------------------|----------------------|------------------------|
------------------------|----------------------|------------------------|
------------------------|----------------------|------------------------|
------------------------|----------------------|------------------------|
--------2-------4-------|--5-------7--L--------|--------2-------4-------|
--0--0--0----0--2----0--|--3----0--5--L--------|--0--0--0----0--2----0--|


                         Pre-Coro                                    
  Q    E  E  H           W                   Q    E   Q    Q    E    
----------------------|-------------------|-------------------------|
----------------------|-------------------|-------------------------|
----------------------|-------------------|-------------------------|
----------------------|--4----------------|--L----4S--2----2----2S--|
--5-------7--L--------|--2----------------|--L----2S--0----0----0S--|
--3----0--5--L--------|-------------------|-------------------------|


  W                   Q    E   Q    Q    E      W                 
-------------------|-------------------------|-------------------|
-------------------|-------------------------|-------------------|
-------------------|-------------------------|-------------------|
--4----------------|--L----4S--2----2----2S--|--4----------------|
--2----------------|--L----2S--0----0----0S--|--2----------------|
-------------------|-------------------------|-------------------|


  Q    E   Q    Q    E      W                   Q    E   Q    Q    E   
-------------------------|-------------------|------------------------|
-------------------------|-------------------|------------------------|
-------------------------|-------------------|------------------------|
--L----4S--2----2----2S--|--4----------------|--L----4S--2----2----2--|
--L----2S--0----0----0S--|--2----------------|--L----2S--0----0----0--|
-------------------------|-------------------|------------------------|


  Coro                                                          
  W                   Q    E  E  Q    Q       W                 
-------------------|-----------------------|-------------------|
-------------------|-----------------------|-------------------|
-------------------|-----------------------|-------------------|
-------------------|-----------------------|-------------------|
--7----------------|--L-------5--L---------|--7----------------|
--0----------------|--L----7----------7----|--0----------------|


  Q    E  E  Q    Q       W                   Q    E  E  Q    Q     
-----------------------|-------------------|-----------------------|
-----------------------|-------------------|-----------------------|
-----------------------|-------------------|-----------------------|
-----------------------|-------------------|-----------------------|
--L-------5--L---------|--7----------------|--L-------5--L---------|
--L----7----------7----|--0----------------|--L----7----------7----|


                                              Pre-Coro          
  W                   Q    E  E  Q    Q       W                 
-------------------|-----------------------|-------------------|
-------------------|-----------------------|-------------------|
-------------------|-----------------------|-------------------|
-------------------|-----------------------|--4----------------|
--7----------------|--L-------5--L---------|--2----------------|
--0----------------|--L----7----------7----|-------------------|


  Q    E   Q    Q    E      W                   Q    E   Q    Q    E    
-------------------------|-------------------|-------------------------|
-------------------------|-------------------|-------------------------|
-------------------------|-------------------|-------------------------|
--L----4S--2----2----2S--|--4----------------|--L----4S--2----2----2S--|
--L----2S--0----0----0S--|--2----------------|--L----2S--0----0----0S--|
-------------------------|-------------------|-------------------------|


                                               Puente              
  W                   Q    E   Q    Q    E     Q.     Q.     Q     
-------------------|------------------------|---------------------|
-------------------|------------------------|---------------------|
-------------------|------------------------|---------------------|
--4----------------|--L----4S--2----2----2--|--9------8------7----|
--2----------------|--L----2S--0----0----0--|--7------6------5----|
-------------------|------------------------|---------------------|


  E  E  Q    Q    Q       Q.     Q.     Q       E  E  Q    Q    Q     
-----------------------|---------------------|-----------------------|
-----------------------|---------------------|-----------------------|
-----------------------|---------------------|-----------------------|
--L--6--L----5----4----|--3------------------|-----------------------|
--L--4--L----3----2----|--1------7------6----|--L--5--L----4----3----|
-----------------------|---------5------4----|--L--3--L----2----1----|


  Intro Riff                                                                    
  W                   W                   W                   W                 
-------------------|-------------------|-------------------|-------------------|
-------------------|-------------------|-------------------|-------------------|
-------------------|-------------------|-------------------|-------------------|
--9----------------|--L----------------|--9----------------|--L----------------|
--7----------------|--L----------------|--7----------------|--L----------------|
-------------------|-------------------|-------------------|-------------------|


  W                   W                   W                   W                 
-------------------|-------------------|-------------------|-------------------|
-------------------|-------------------|-------------------|-------------------|
-------------------|-------------------|-------------------|-------------------|
--9----------------|--L----------------|--9----------------|--L----------------|
--7----------------|--L----------------|--7----------------|--L----------------|
-------------------|-------------------|-------------------|-------------------|


  Main Riff                                                                     
  PM        PM      PM      PM                           PM PM      PM      PM  
  E         E  Q    E  Q    E     Q    E  E  H           E  E  Q    E  Q    E   
-------------------------------|----------------------|------------------------|
-------------------------------|----------------------|------------------------|
-------------------------------|----------------------|------------------------|
-------------------------------|----------------------|------------------------|
---------------2-------4-------|--5-------7--L--------|--------2-------4-------|
--0---------0--0----0--2----0--|--3----0--5--L--------|--0--0--0----0--2----0--|


                         PM PM      PM      PM                         
  Q    E  E  H           E  E  Q    E  Q    E     Q    E  E  H         
----------------------|------------------------|----------------------|
----------------------|------------------------|----------------------|
----------------------|------------------------|----------------------|
----------------------|------------------------|----------------------|
--5-------7--L--------|--------2-------4-------|--5-------7--L--------|
--3----0--5--L--------|--0--0--0----0--2----0--|--3----0--5--L--------|


                                                  Verso             
  PM PM      PM      PM                                             
  E  E  Q    E  Q    E     Q    E  E  H           W                 
------------------------|----------------------|-------------------|
------------------------|----------------------|-------------------|
------------------------|----------------------|-------------------|
------------------------|----------------------|--4----------------|
--------2-------4-------|--5-------7--L--------|--2----------------|
--0--0--0----0--2----0--|--3----0--5--L--------|-------------------|


  W                   W                   E  E  E  E  E  Q.      
-------------------|-------------------|------------------------|
-------------------|-------------------|------------------------|
-------------------|-------------------|------------------------|
--L----------------|-------------------|------------------------|
--L----------------|--7----------------|--------5--7--7--5------|
-------------------|--5----------------|--5--7--------5--3------|


  PM PM      PM      PM                           PM PM      PM      PM  
  E  E  Q    E  Q    E     Q    E  E  H           E  E  Q    E  Q    E   
------------------------|----------------------|------------------------|
------------------------|----------------------|------------------------|
------------------------|----------------------|------------------------|
------------------------|----------------------|------------------------|
--------2-------4-------|--5-------7--L--------|--------2-------4-------|
--0--0--0----0--2----0--|--3----0--5--L--------|--0--0--0----0--2----0--|


  Q    E  E  H           W                   W                 
----------------------|-------------------|-------------------|
----------------------|-------------------|-------------------|
----------------------|-------------------|-------------------|
----------------------|--4----------------|--L----------------|
--5-------7--L--------|--2----------------|--L----------------|
--3----0--5--L--------|-------------------|-------------------|


                                               PM PM      PM      PM  
  W                   E  E  E  E  E  Q.        E  E  Q    E  Q    E   
-------------------|------------------------|------------------------|
-------------------|------------------------|------------------------|
-------------------|------------------------|------------------------|
-------------------|------------------------|------------------------|
--7----------------|--------5--7--7--5------|--------2-------4-------|
--5----------------|--5--7--------5--3------|--0--0--0----0--2----0--|


                         PM PM      PM      PM                         
  Q    E  E  H           E  E  Q    E  Q    E     Q    E  E  H         
----------------------|------------------------|----------------------|
----------------------|------------------------|----------------------|
----------------------|------------------------|----------------------|
----------------------|------------------------|----------------------|
--5-------7--L--------|--------2-------4-------|--5-------7--L--------|
--3----0--5--L--------|--0--0--0----0--2----0--|--3----0--5--L--------|


  W                   W                   W                 
-------------------|-------------------|-------------------|
-------------------|-------------------|-------------------|
-------------------|-------------------|-------------------|
--4----------------|--L----------------|-------------------|
--2----------------|--L----------------|--7----------------|
-------------------|-------------------|--5----------------|


                           PM PM      PM      PM                         
  E  E  E  E  E  Q.        E  E  Q    E  Q    E     Q    E  E  H         
------------------------|------------------------|----------------------|
------------------------|------------------------|----------------------|
------------------------|------------------------|----------------------|
------------------------|------------------------|----------------------|
--------5--7--7--5------|--------2-------4-------|--5-------7--L--------|
--5--7--------5--3------|--0--0--0----0--2----0--|--3----0--5--L--------|


                                                  Pre-Coro          
  PM PM      PM      PM                                             
  E  E  Q    E  Q    E     Q    E  E  H           W                 
------------------------|----------------------|-------------------|
------------------------|----------------------|-------------------|
------------------------|----------------------|-------------------|
------------------------|----------------------|--4----------------|
--------2-------4-------|--5-------7--L--------|--2----------------|
--0--0--0----0--2----0--|--3----0--5--L--------|-------------------|


  Q    E   Q    Q    E      W                   Q    E   Q    Q    E    
-------------------------|-------------------|-------------------------|
-------------------------|-------------------|-------------------------|
-------------------------|-------------------|-------------------------|
--L----4S--2----2----2S--|--4----------------|--L----4S--2----2----2S--|
--L----2S--0----0----0S--|--2----------------|--L----2S--0----0----0S--|
-------------------------|-------------------|-------------------------|


  W                   Q    E   Q    Q    E      W                 
-------------------|-------------------------|-------------------|
-------------------|-------------------------|-------------------|
-------------------|-------------------------|-------------------|
--4----------------|--L----4S--2----2----2S--|--4----------------|
--2----------------|--L----2S--0----0----0S--|--2----------------|
-------------------|-------------------------|-------------------|


                           Coro                                      
  Q    E   Q    Q    E     W                   Q    E  E  Q    Q     
------------------------|-------------------|-----------------------|
------------------------|-------------------|-----------------------|
------------------------|-------------------|-----------------------|
--L----4S--2----2----2--|-------------------|-----------------------|
--L----2S--0----0----0--|--7----------------|--L-------5--L---------|
------------------------|--0----------------|--L----7----------7----|


  W                   Q    E  E  Q    Q       W                 
-------------------|-----------------------|-------------------|
-------------------|-----------------------|-------------------|
-------------------|-----------------------|-------------------|
-------------------|-----------------------|-------------------|
--7----------------|--L-------5--L---------|--7----------------|
--0----------------|--L----7----------7----|--0----------------|


  Q    E  E  Q    Q       W                   Q    E  E  Q    Q     
-----------------------|-------------------|-----------------------|
-----------------------|-------------------|-----------------------|
-----------------------|-------------------|-----------------------|
-----------------------|-------------------|-----------------------|
--L-------5--L---------|--7----------------|--L-------5--L---------|
--L----7----------7----|--0----------------|--L----7----------7----|


  Pre-Coro                                                        
  W                   Q    E   Q    Q    E      W                 
-------------------|-------------------------|-------------------|
-------------------|-------------------------|-------------------|
-------------------|-------------------------|-------------------|
--4----------------|--L----4S--2----2----2S--|--4----------------|
--2----------------|--L----2S--0----0----0S--|--2----------------|
-------------------|-------------------------|-------------------|


  Q    E   Q    Q    E      W                   Q    E   Q    Q    E   
-------------------------|-------------------|------------------------|
-------------------------|-------------------|------------------------|
-------------------------|-------------------|------------------------|
--L----4S--2----2----2S--|--4----------------|--L----4S--2----2----2--|
--L----2S--0----0----0S--|--2----------------|--L----2S--0----0----0--|
-------------------------|-------------------|------------------------|


  Puente                                                            
  Q.     Q.     Q       E  E  Q    Q    Q       Q.     Q.     Q     
---------------------|-----------------------|---------------------|
---------------------|-----------------------|---------------------|
---------------------|-----------------------|---------------------|
--9------8------7----|--L--6--L----5----4----|--3------------------|
--7------6------5----|--L--4--L----3----2----|--1------7------6----|
---------------------|-----------------------|---------5------4----|


                          Intro Riff                            
  E  E  Q    Q    Q       W                   W                 
-----------------------|-------------------|-------------------|
-----------------------|-------------------|-------------------|
-----------------------|-------------------|-------------------|
-----------------------|--9----------------|--L----------------|
--L--5--L----4----3----|--7----------------|--L----------------|
--L--3--L----2----1----|-------------------|-------------------|


  W                   W                   W                   W                 
-------------------|-------------------|-------------------|-------------------|
-------------------|-------------------|-------------------|-------------------|
-------------------|-------------------|-------------------|-------------------|
--9----------------|--L----------------|--9----------------|--L----------------|
--7----------------|--L----------------|--7----------------|--L----------------|
-------------------|-------------------|-------------------|-------------------|


                                          Solo Mick Procter                     
                                          PM                PM      PM      PM  
  W                   W                   E                 E  Q    E  Q    E   
-------------------|-------------------|---------------------------------------|
-------------------|-------------------|---------------------------------------|
-------------------|-------------------|---------------------------------------|
--9----------------|--L----------------|-----------------------2-------4-------|
--7----------------|--L----------------|-----------------------2-------4-------|
-------------------|-------------------|--0-----------------0-------0-------0--|


                          PM PM      PM      PM         PM                
  Q    E  E   H           E  E  Q    E  Q    E     Q    E  Q    E  E  E   
-----------------------|------------------------|------------------------|
-----------------------|------------------------|------------------------|
-----------------------|------------------------|------------------------|
--5-------7~--L--------|--------2-------4-------|--5-------7-------------|
--5-------7~--L--------|--------2-------4-------|--5-------7----7--5-----|
-------0---------------|--0--0-------0-------0--|-------0-------5--3-----|


  PM PM      PM      PM                            PM PM      PM      PM  
  E  E  Q    E  Q    E     Q    E  E   H           E  E  Q    E  Q    E   
------------------------|-----------------------|------------------------|
------------------------|-----------------------|------------------------|
------------------------|-----------------------|------------------------|
--------2-------4-------|--5-------7~--L--------|--------2-------4-------|
--------2-------4-------|--5-------7~--L--------|--------2-------4-------|
--0--0-------0-------0--|-------0---------------|--0--0-------0-------0--|


       PM                  PM PM      PM      PM                          
  Q    E  Q    E  E  E     E  E  Q    E  Q    E     Q    E  E   H         
------------------------|------------------------|-----------------------|
------------------------|------------------------|-----------------------|
------------------------|------------------------|-----------------------|
--5-------7-------------|--------2-------4-------|--5-------7~--L--------|
--5-------7----7--5-----|--------2-------4-------|--5-------7~--L--------|
-------0-------5--3-----|--0--0-------0-------0--|-------0---------------|


  PM PM      PM      PM         PM                  PM PM      PM      PM  
  E  E  Q    E  Q    E     Q    E  Q    E  E  E     E  E  Q    E  Q    E   
------------------------|------------------------|------------------------|
------------------------|------------------------|------------------------|
------------------------|------------------------|------------------------|
--------2-------4-------|--5-------7-------------|--------2-------4-------|
--------2-------4-------|--5-------7----7--5-----|--------2-------4-------|
--0--0-------0-------0--|-------0-------5--3-----|--0--0-------0-------0--|


                          PM PM      PM      PM         PM                
  Q    E  E   H           E  E  Q    E  Q    E     Q    E  Q    E  E  E   
-----------------------|------------------------|------------------------|
-----------------------|------------------------|------------------------|
-----------------------|------------------------|------------------------|
--5-------7~--L--------|--------2-------4-------|--5-------7-------------|
--5-------7~--L--------|--------2-------4-------|--5-------7----7--5-----|
-------0---------------|--0--0-------0-------0--|-------0-------5--3-----|


  PM PM      PM      PM                            PM PM      PM      PM  
  E  E  Q    E  Q    E     Q    E  E   H           E  E  Q    E  Q    E   
------------------------|-----------------------|------------------------|
------------------------|-----------------------|------------------------|
------------------------|-----------------------|------------------------|
--------2-------4-------|--5-------7~--L--------|--------2-------4-------|
--------2-------4-------|--5-------7~--L--------|--------2-------4-------|
--0--0-------0-------0--|-------0---------------|--0--0-------0-------0--|


       PM                  PM PM      PM      PM                          
  Q    E  Q    E  E  E     E  E  Q    E  Q    E     Q    E  E   H         
------------------------|------------------------|-----------------------|
------------------------|------------------------|-----------------------|
------------------------|------------------------|-----------------------|
--5-------7-------------|--------2-------4-------|--5-------7~--L--------|
--5-------7----7--5-----|--------2-------4-------|--5-------7~--L--------|
-------0-------5--3-----|--0--0-------0-------0--|-------0---------------|


                                                    Outro                 
  PM PM      PM      PM         PM                                        
  E  E  Q    E  Q    E     Q    E  Q    E  E  E     Q     Q    Q    Q     
------------------------|------------------------|-----------------------|
------------------------|------------------------|-----------------------|
------------------------|------------------------|-----------------------|
--------2-------4-------|--5-------7-------------|--9----------9---------|
--------2-------4-------|--5-------7----7--5-----|--7----------7---------|
--0--0-------0-------0--|-------0-------5--3-----|--0----------0---------|


  Q    Q    Q    Q       W                   W                 
----------------------|-------------------|-------------------|
----------------------|-------------------|-------------------|
----------------------|--9----------------|--L----------------|
--9---------9---------|--9----------------|--L----------------|
--7---------7---------|--7----------------|--L----------------|
--0---------0---------|--0----------------|--L----------------|




Voice Melody:

Brian Ross


 Verso (Min 0:20)
                    
          The Man   in  The 
   Q.      E   Q     E   E   
|---------12--14----12--10--|
|---------------------------|
|----------9--11-----9---7--|
|---------------------------|
|---------------------------|
|---------------------------|


      Shroud,                           S   poke  To The   
   S. T       Q    E  H           Q     E   Q     E  Q     
---L-12-------L----------------|-------10--12----10--7----|
-------------------------------|--------------------------|
---L--9-------L----------------|--------7---9-----7--4----|
-------------------------------|--------------------------|
-------------------------------|--------------------------|
-------------------------------|--------------------------|


   Crowd,                      And His   Name  Was    Ha    llowed... Be  lie 
   Q     H.              Q     E   Q     Q     E      Q     H         E   E   
--10------------------|-------10--12----12----10--|--12----12--------12--15--|
----------------------|---------------------------|--------------------------|
---7------------------|--------7---9-----9-----7--|---9-----9---------9--12--|
----------------------|---------------------------|--------------------------|
----------------------|---------------------------|--------------------------|
----------------------|---------------------------|--------------------------|


         ver!...                Woh! oh!      oh!       
   Q     H.               Q     E    E   E.   S   Q     
---L----12------------|---L----15---14---L---12---L----|
----------------------|--------------------------------|
---L-----9------------|---L----12---11---L----9---L----|
----------------------|--------------------------------|
----------------------|--------------------------------|
----------------------|--------------------------------|


          But    Now   He is        Gone,                
  Q.      S   S  Q     E  E     E   E     Q    H         
---------10---L-12----10--7--|--L--10-----L-------------|
-----------------------------|--------------------------|
----------7---L--9-----7--4--|--L---7-----L-------------|
-----------------------------|--------------------------|
-----------------------------|--------------------------|
-----------------------------|--------------------------|


        No  One   To    Right        Our     Wrongs,      
  Q     E   Q     Q     E        E   E   E   Q.     Q     
-------10--12----10----12----|---L--12---L--12-----------|
-----------------------------|---------------------------|
--------7---9-----7-----9----|---L---9---L---9-----------|
-----------------------------|---------------------------|
-----------------------------|---------------------------|
-----------------------------|---------------------------|


        And He  Ain't Co  ming    Back...          De  cei 
  Q     E   E   Q     E   E       Q      H         E   E   
-------10--12--12----10--10---|--12---------------12--15--|
------------------------------|---------------------------|
--------7---9---9-----7---7---|---9----------------9--12--|
------------------------------|---------------------------|
------------------------------|---------------------------|
------------------------------|---------------------------|


         ver!...                Woh!    oh!       oh!   
   Q     H.               Q     S    S  E   Q     Q     
---L----12------------|---L----15----L-14---L----12----|
----------------------|--------------------------------|
---L-----9------------|---L----12----L-11---L-----9----|
----------------------|--------------------------------|
----------------------|--------------------------------|
----------------------|--------------------------------|


          O     penYour     Eyes,                       Look Up    To  The   
  Q.      Q     E  Q        Q.     E  H           Q     E    Q     E   Q     
---------12----10--7----|--10------------------|-------10---12----12--10----|
------------------------|----------------------|----------------------------|
----------9-----7--4----|---7------------------|--------7----9-----9---7----|
------------------------|----------------------|----------------------------|
------------------------|----------------------|----------------------------|
------------------------|----------------------|----------------------------|


   Skies,                     But He    Won't    Res   cue 
   H        H           Q     E   S  S  S     S  Q     E   
--12-----------------|-------10--12--L-12-----L-12----10--|
---------------------|------------------------------------|
---9-----------------|--------7---9--L--9-----L--9-----7--|
---------------------|------------------------------------|
---------------------|------------------------------------|
---------------------|------------------------------------|


   Us...              Drea          mers!...      
   Q    H        E.   S       Q     H.            
--12-----------------15---|---L----12------------|
--------------------------|----------------------|
---9-----------------12---|---L-----9------------|
--------------------------|----------------------|
--------------------------|----------------------|
--------------------------|----------------------|


                                   Pre-Coro                                   
         Woh!    oh!       oh!              Long A        go     oo,          
   Q     S    S  E   Q     Q       H        Q    Q        Q.     Q.     Q     
---L----15----L-14---L----12----|-----------7----7----|--10------7-----------|
--------------------------------|---------------------|----------------------|
---L----12----L-11---L-----9----|-----------4----4----|---7------4-----------|
--------------------------------|---------------------|----------------------|
--------------------------------|---------------------|----------------------|
--------------------------------|---------------------|----------------------|


         or So    We  Are       Told,                           We   Were Sub  
  Q.     E  Q     E   E      E  E     Q    H           H        S  S Q    E    
---------7--7----10--12--|---L--7-----L-------------|-----------7--L-7----7---|
-------------------------|--------------------------|-------------------------|
---------4--4-----7---9--|---L--4-----L-------------|-----------4--L-4----4---|
-------------------------|--------------------------|-------------------------|
-------------------------|--------------------------|-------------------------|
-------------------------|--------------------------|-------------------------|


     ject To    a     Vi          sit,                              
  E  Q    Q     Q     E      Q    H.              W                 
--L--7----7----10----12--|---L----7------------|-------------------|
-------------------------|---------------------|-------------------|
--L--4----4-----7-----9--|---L----4------------|-------------------|
-------------------------|---------------------|-------------------|
-------------------------|---------------------|-------------------|
-------------------------|---------------------|-------------------|


  Coro                                                                        
            From  The      Sta       ars,                       From  A   fa  
  H         Q     Q        Q     E   E    H           H         Q     E   E   
-----------12----12----|--15-----L--12----L--------|-----------12----12--15--|
-----------------------|---------------------------|-------------------------|
------------9-----9----|--12-----L---9----L--------|------------9-----9--12--|
-----------------------|---------------------------|-------------------------|
-----------------------|---------------------------|-------------------------|
-----------------------|---------------------------|-------------------------|


         ar,                                  Came      Our           
   Q     H.              W                    Q     E   E   H         
---L----12------------|-------------------|--12-----L--12---L--------|
----------------------|-------------------|--------------------------|
---L-----9------------|-------------------|---9-----L---9---L--------|
----------------------|-------------------|--------------------------|
----------------------|-------------------|--------------------------|
----------------------|-------------------|--------------------------|


                                               Pre-Coro                     
   Fa        thers,                                     And  in Our  Dawn,  
   H         H            H        H           Q.       E    E  Q    E      
--12--------12--------|---L-----------------|-----------7---10--7----7-----|
----------------------|---------------------|------------------------------|
---9---------9--------|---L-----------------|-----------4----7--4----4-----|
----------------------|---------------------|------------------------------|
----------------------|---------------------|------------------------------|
----------------------|---------------------|------------------------------|


                              it Di dn't  Take        Long,              
  Q    H.              Q.     E  E  Q     E       E.  E.    Q.     Q     
--L-----------------|---------7--7--7----10---|---L---7-----L-----------|
--------------------|-------------------------|-------------------------|
--L-----------------|---------4--4--4-----7---|---L---4-----L-----------|
--------------------|-------------------------|-------------------------|
--------------------|-------------------------|-------------------------|
--------------------|-------------------------|-------------------------|


                                                          Puente            
            Here    They        Spawned...                                  
  H         S    S  Q    E      Q         H.              W                 
-----------10----L-10-------|--10----------------------|-------------------|
----------------------------|--------------------------|-------------------|
------------7----L--7-------|---7----------------------|-------------------|
----------------------------|--------------------------|-------------------|
----------------------------|--------------------------|-------------------|
----------------------------|--------------------------|-------------------|


                                                    U     uu     
  W                   W                   H         Q     Q      
-------------------|-------------------|-----------24----24~----|
-------------------|-------------------|------------------------|
-------------------|-------------------|-----------21----21~----|
-------------------|-------------------|------------------------|
-------------------|-------------------|------------------------|
-------------------|-------------------|------------------------|


   Intro Riff                                                  
   us!                                                         
   H         H         
--24~-----------------|
----------------------|
--21~-----------------|
----------------------|
----------------------|
----------------------|


 Verso (Min 1:35) 
                                                  
           The Man   in  The       Black,                   
          E   Q     E   E      S. T      Q    E  H         
---------12--14----12--10--|---L-12------L----------------|
---------------------------|------------------------------|
----------9--11-----9---7--|---L--9------L----------------|
---------------------------|------------------------------|
---------------------------|------------------------------|
---------------------------|------------------------------|


        is  on            The          A     ttack,    
  Q     E   E   Q     E   E      Q     Q     H         
-------10--12---L-----L--12--|---L----10----12--------|
-----------------------------|------------------------|
--------7---9---L-----L---9--|---L-----7-----9--------|
-----------------------------|------------------------|
-----------------------------|------------------------|
-----------------------------|------------------------|


        Claws    Flash       in    The    Night...            
  Q     Q    E   Q    E      Q     S   S  E        Q    Q     
-------12-------12-------|--12----10---L-12--------L---------|
-------------------------|-----------------------------------|
--------9--------9-------|---9-----7---L--9--------L---------|
-------------------------|-----------------------------------|
-------------------------|-----------------------------------|
-------------------------|-----------------------------------|


   De  vil!...                        Woh! oh!      oh!       
   E   E       H.               Q     E    E   E.   S   Q     
--15--12-------L------------|---L----15---14---L---12---L----|
----------------------------|--------------------------------|
--12---9-------L------------|---L----12---11---L----9---L----|
----------------------------|--------------------------------|
----------------------------|--------------------------------|
----------------------------|--------------------------------|


          To    Buy   Our      Souls,                     Needsa   Li ttle    
  Q.      S  S  Q     Q        H        H           Q     E    E   E  Q.      
---------10--L-12----10----|--12-----------------|-------10----7--10--7------|
---------------------------|---------------------|---------------------------|
----------7--L--9-----7----|---9-----------------|--------7----4---7--4------|
---------------------------|---------------------|---------------------------|
---------------------------|---------------------|---------------------------|
---------------------------|---------------------|---------------------------|


   Gold,                      But We  Are   Still    Pay ing...                
   H        H           Q     E   E   Q     Q        E   E      Q    H         
--10-----------------|-------12--10--12----12----|--12--12------L-------------|
---------------------|---------------------------|----------------------------|
---7-----------------|--------9---7---9-----9----|---9---9------L-------------|
---------------------|---------------------------|----------------------------|
---------------------|---------------------------|----------------------------|
---------------------|---------------------------|----------------------------|


   Si  nners!                                               To  Save  Our   
   E   E      H.               H        H           Q.      E   Q     Q     
--27--27------L------------|---L-----------------|---------12--15----15----|
---------------------------|---------------------|-------------------------|
--24--24------L------------|---L-----------------|----------9--12----12----|
---------------------------|---------------------|-------------------------|
---------------------------|---------------------|-------------------------|
---------------------------|---------------------|-------------------------|


   Bo  dies,                        We  Cry   To    God,                       
   E   E     H        Q       Q     E   Q     Q     E       H        H         
--15--12-----L-------------|-------10--12----10----12---|---L-----------------|
---------------------------|----------------------------|---------------------|
--12---9-----L-------------|--------7---9-----7-----9---|---L-----------------|
---------------------------|----------------------------|---------------------|
---------------------------|----------------------------|---------------------|
---------------------------|----------------------------|---------------------|


        Is  He  Rea lly Up  in     Hea    ven...           
  Q     E   E   E   E   E   E      S   S  H        Q.      
-------12--10--12--12--12--10--|--12---L-12---------------|
-------------------------------|--------------------------|
--------9---7---9---9---9---7--|---9---L--9---------------|
-------------------------------|--------------------------|
-------------------------------|--------------------------|
-------------------------------|--------------------------|


                                                          Pre-Coro            
   Wat   cher!...               Woh!    oh!       oh!              Long A     
   Q     H.               Q     S    S  E   Q     Q       H        Q    Q     
--15----12------------|---L----15----L-14---L----12----|-----------7----7----|
----------------------|--------------------------------|---------------------|
--12-----9------------|---L----12----L-11---L-----9----|-----------4----4----|
----------------------|--------------------------------|---------------------|
----------------------|--------------------------------|---------------------|
----------------------|--------------------------------|---------------------|


   go     oo,                   or So    We  Are       Told,                
   Q.     Q.     Q       Q.     E  Q     E   E      E  E     Q    H         
--10------7-----------|---------7--7----10--12--|---L--7-----L-------------|
----------------------|-------------------------|--------------------------|
---7------4-----------|---------4--4-----7---9--|---L--4-----L-------------|
----------------------|-------------------------|--------------------------|
----------------------|-------------------------|--------------------------|
----------------------|-------------------------|--------------------------|


           We   Were Sub       ject To    a     Vi          sit,          
  H        S  S Q    E      E  Q    Q     Q     E      Q    H.            
-----------7--L-7----7---|--L--7----7----10----12--|---L----7------------|
-------------------------|-------------------------|---------------------|
-----------4--L-4----4---|--L--4----4-----7-----9--|---L----4------------|
-------------------------|-------------------------|---------------------|
-------------------------|-------------------------|---------------------|
-------------------------|-------------------------|---------------------|


                      Coro                                              
                                From  The      Sta       ars,           
  W                   H         Q     Q        Q     E   E    H         
-------------------|-----------12----12----|--15-----L--12----L--------|
-------------------|-----------------------|---------------------------|
-------------------|------------9-----9----|--12-----L---9----L--------|
-------------------|-----------------------|---------------------------|
-------------------|-----------------------|---------------------------|
-------------------|-----------------------|---------------------------|


            From  A   fa           ar,                               
  H         Q     E   E      Q     H.              W                 
-----------12----12--15--|---L----12------------|-------------------|
-------------------------|----------------------|-------------------|
------------9-----9--12--|---L-----9------------|-------------------|
-------------------------|----------------------|-------------------|
-------------------------|----------------------|-------------------|
-------------------------|----------------------|-------------------|


   Came      Our              Fa        thers,                          
   Q     E   E   H            H         H            H        H         
--12-----L--12---L--------|--12--------12--------|---L-----------------|
--------------------------|----------------------|---------------------|
---9-----L---9---L--------|---9---------9--------|---L-----------------|
--------------------------|----------------------|---------------------|
--------------------------|----------------------|---------------------|
--------------------------|----------------------|---------------------|


  Pre-Coro                                                                    
           And  in Our  Dawn,                                it Di dn't  Take 
  Q.       E    E  Q    E        Q    H.              Q.     E  E  Q     E    
-----------7---10--7----7-----|--L-----------------|---------7--7--7----10---|
------------------------------|--------------------|-------------------------|
-----------4----7--4----4-----|--L-----------------|---------4--4--4-----7---|
------------------------------|--------------------|-------------------------|
------------------------------|--------------------|-------------------------|
------------------------------|--------------------|-------------------------|


       Long,                          Here    They     
   E.  E.    Q.     Q       H         S    S  Q    E   
---L---7-----L-----------|-----------10----L-10-------|
-------------------------|----------------------------|
---L---4-----L-----------|------------7----L--7-------|
-------------------------|----------------------------|
-------------------------|----------------------------|
-------------------------|----------------------------|


                             Puente                                
   Spawned...                                                      
   Q         H.              W                   W                 
--10----------------------|-------------------|-------------------|
--------------------------|-------------------|-------------------|
---7----------------------|-------------------|-------------------|
--------------------------|-------------------|-------------------|
--------------------------|-------------------|-------------------|
--------------------------|-------------------|-------------------|


                                                Intro Riff          
                                U     uu        us!                 
  W                   H         Q     Q         H         H         
-------------------|-----------24----24~----|--24~-----------------|
-------------------|------------------------|----------------------|
-------------------|-----------21----21~----|--21~-----------------|
-------------------|------------------------|----------------------|
-------------------|------------------------|----------------------|
-------------------|------------------------|----------------------|




Duration Legend
---------------
W - whole
H - half
Q - quarter
E - 8th
S - 16th
T - 32nd
X - 64th
. - note dotted
|-n-|  - n-tuplets


Tablature Legend
----------------
L - tied note
x - dead note
g - grace note
(n) - ghost note
> - accentuded note
NH - natural harmonic
AH - artificial harmonic
TH - tapped harmonic
SH - semi harmonic
PH - pitch harmonic
h - hammer on
p - pull off
b - bend
br - bendRelease
pb - preBend
pbr - preBendRelease
brb - bendReleaseBend
\n/ - tremolo bar dip
\n - tremolo bar dive
-/n - tremolo bar Release up
/n\ - tremolo bar inverted dip
/n - tremolo bar return
-\n - tremolo bar Release down
S - shift slide
s - legato slide
/ -  slide into from below or out of upwards
\ -  slide into from above or out of downwards
~ - vibrato
W - wide vibrato
tr - trill
TP - tremolo picking
T - tapping
S - slap
P - pop
< - fade in
^ - brush up
v - brush down
Добавлено: 26.12.2015
Другие материалы по этой песне:

Страница создана 13.11.2015
http://primanota.ru/blitzkrieg/saviour-chords.htm
Привет, Гость.
Предлагаем пройти революционный курс по гитаре.
Подарок от PrimaNota.Ru, забирай!