PrimaNota.ru - самый крупный в мире бесплатный архив песенных текстов, аккордов, табулатур и нот


Blitzkrieg - Armageddon - таба, бас-таба, драм-таба, видео

Регистрация Запомнить меня
Войти через:  Facebook Google Twitter Vk Yandex Mail.ru

Blitzkrieg - Armageddon - таба, бас-таба, драм-таба, видео

Печатать
Просмотров: 64
                                  Armageddon                                    


                                  Blitzkrieg

Instruments:
- G #1
- G #2
- G #3
- Voice Melody



Guitar #1:

Mick Procter


          Intro / Main Riff                                   
                                        PM PM PM PM PM PM PM  
     S    H.                E  E     E  E  E  E  E  E  E  E   
E||----|--------------------------|--------------------------|
B||----|--------------------------|--------------------------|
G||----|--------------------------|--------------------------|
D||----|-----------------------2--|--L-----------------------|
A||----|-----------------------0--|--L--0--0--0--0--0--0--0--|
E||----|--------------------------|--------------------------|


  PM PM PM PM PM                        PM PM PM PM    PM PM PM PM PM           
  E  E  E  E  E  E.  S E     E  E  Q    E  E  E  E     E  E  E  E  E  E.  S E   
--------------------------|-------------------------|--------------------------|
--------------------------|-------------------------|--------------------------|
--------------------------|-------------------------|--------------------------|
-----------------7-----5--|--L-----2----------------|-----------------7-----5--|
--0--0--0--0--0--5-----3--|--L-----0----0--0--0--0--|--0--0--0--0--0--5-----3--|
--------------------------|-------------------------|--------------------------|


             PM PM PM                                                       
  E  E  Q    E  E  E  E     Q.     Q.     E  E     H        E    Q     E    
-------------------------|----------------------|--------------------------|
-------------------------|----------------------|--------------------------|
-------------------------|----------------------|--------------5g7p----5h--|
--L-----2-------------4--|--L------3------2--2--|--L--------L--------------|
--L-----0----0--0--0--2--|--L------1------0--0--|--L--------L--------------|
-------------------------|----------------------|--------------------------|


              SH                  PM PM PM PM PM PM    PM PM PM PM PM           
  E   E  E    E  H           Q    E  E  E  E  E  E     E  E  E  E  E  E.  S E   
--------------------------|-------------------------|--------------------------|
--------------------------|-------------------------|--------------------------|
--7p--5-------------------|-------------------------|--------------------------|
---------7--<>7--L--------|--2----------------------|-----------------7-----5--|
--------------7--L--------|--0----0--0--0--0--0--0--|--0--0--0--0--0--5-----3--|
--------------------------|-------------------------|--------------------------|


             PM PM PM PM    PM PM PM PM PM                        PM PM PM     
  E  E  Q    E  E  E  E     E  E  E  E  E  E.  S E     E  E  Q    E  E  E  E   
-------------------------|--------------------------|-------------------------|
-------------------------|--------------------------|-------------------------|
-------------------------|--------------------------|-------------------------|
--L-----2----------------|-----------------7-----5--|--L-----2-------------4--|
--L-----0----0--0--0--0--|--0--0--0--0--0--5-----3--|--L-----0----0--0--0--2--|
-------------------------|--------------------------|-------------------------|


                                                                SH             
  Q.     Q.     E  E     H        E    Q     E      E   E  E    E  Q    E  E   
----------------------|--------------------------|----------------------------|
----------------------|--------------------------|----------------------------|
----------------------|--------------5g7p----5h--|--7p--5---------------------|
--L------3------2--2--|--L--------L--------------|---------7--<>7--L----x--5--|
--L------1------0--0--|--L--------L--------------|--------------7--L----x--3--|
----------------------|--------------------------|----------------------------|


  Riff B                                                 
         PM PM PM PM PM PM    PM PM PM PM PM             
  Q      E  E  E  E  E  E     E  E  E  E  E   E.  S  E   
---------------------------|----------------------------|
---------------------------|----------------------------|
---------------------------|----------------------------|
--7------------------------|-----------------12-----10--|
--5------5--5--5--5--5--5--|--5--5--5--5--5--10------8--|
---------------------------|----------------------------|


             PM PM PM PM    PM PM PM PM PM             
  E  E  Q    E  E  E  E     E  E  E  E  E   E.  S  E   
-------------------------|----------------------------|
-------------------------|----------------------------|
-------------------------|----------------------------|
--L-----7----------------|-----------------12-----10--|
--L-----5----5--5--5--5--|--5--5--5--5--5--10------8--|
-------------------------|----------------------------|


             PM PM PM                                                       
  E  E  Q    E  E  E  E     Q.     Q.     E  E     H        E    Q     E    
-------------------------|----------------------|--------------------------|
-------------------------|----------------------|--------------6g8p----6h--|
-------------------------|----------------------|--------------------------|
--L-----7-------------9--|--L------8------7--7--|--L--------L--------------|
--L-----5----5--5--5--7--|--L------6------5--5--|--L--------L--------------|
-------------------------|----------------------|--------------------------|


                             PM PM PM PM PM PM    PM PM PM PM PM             
  H.           E  E     Q    E  E  E  E  E  E     E  E  E  E  E   E.  S  E   
---------------------|-------------------------|----------------------------|
--7------------------|-------------------------|----------------------------|
--7------------------|-------------------------|----------------------------|
---------------x--5--|--7----------------------|-----------------12-----10--|
---------------x--3--|--5----5--5--5--5--5--5--|--5--5--5--5--5--10------8--|
---------------------|-------------------------|----------------------------|


             PM PM PM PM    PM PM PM PM PM             
  E  E  Q    E  E  E  E     E  E  E  E  E   E.  S  E   
-------------------------|----------------------------|
-------------------------|----------------------------|
-------------------------|----------------------------|
--L-----7----------------|-----------------12-----10--|
--L-----5----5--5--5--5--|--5--5--5--5--5--10------8--|
-------------------------|----------------------------|


             PM PM PM                                                       
  E  E  Q    E  E  E  E     Q.     Q.     E  E     H        E    Q     E    
-------------------------|----------------------|--------------------------|
-------------------------|----------------------|--------------6g8p----6h--|
-------------------------|----------------------|--------------------------|
--L-----7-------------9--|--L------8------7--7--|--L--------L--------------|
--L-----5----5--5--5--7--|--L------6------5--5--|--L--------L--------------|
-------------------------|----------------------|--------------------------|


                            Main Riff                       
                                      PM PM PM PM PM PM PM  
  E  E  E  E  Q    E  E     E         E  E  E  E  E  E  E   
-------------------------|---------------------------------|
--8--7--7--7--L----------|---------------------------------|
--7--7--7--7--L----------|---------------------------------|
-------------------x--2--|--L------------------------------|
-------------------x--0--|--L---------0--0--0--0--0--0--0--|
-------------------------|---------------------------------|


  PM PM PM PM PM                        PM PM PM PM    PM PM PM PM PM           
  E  E  E  E  E  E.  S E     E  E  Q    E  E  E  E     E  E  E  E  E  E.  S E   
--------------------------|-------------------------|--------------------------|
--------------------------|-------------------------|--------------------------|
--------------------------|-------------------------|--------------------------|
-----------------7-----5--|--L-----2----------------|-----------------7-----5--|
--0--0--0--0--0--5-----3--|--L-----0----0--0--0--0--|--0--0--0--0--0--5-----3--|
--------------------------|-------------------------|--------------------------|


             PM PM PM                                                       
  E  E  Q    E  E  E  E     Q.     Q.     E  E     H        E    Q     E    
-------------------------|----------------------|--------------------------|
-------------------------|----------------------|--------------------------|
-------------------------|----------------------|--------------5g7p----5h--|
--L-----2-------------4--|--L------3------2--2--|--L--------L--------------|
--L-----0----0--0--0--2--|--L------1------0--0--|--L--------L--------------|
-------------------------|----------------------|--------------------------|


                                PM PM PM PM PM PM    PM PM PM PM PM           
  E   E   H        Q       Q    E  E  E  E  E  E     E  E  E  E  E  E.  S E   
------------------------|-------------------------|--------------------------|
------------------------|-------------------------|--------------------------|
--7p--5~--L-------------|-------------------------|--------------------------|
-------------------5----|--2----------------------|-----------------7-----5--|
------------------------|--0----0--0--0--0--0--0--|--0--0--0--0--0--5-----3--|
------------------------|-------------------------|--------------------------|


             PM PM PM PM    PM PM PM PM PM                        PM PM PM     
  E  E  Q    E  E  E  E     E  E  E  E  E  E.  S E     E  E  Q    E  E  E  E   
-------------------------|--------------------------|-------------------------|
-------------------------|--------------------------|-------------------------|
-------------------------|--------------------------|-------------------------|
--L-----2----------------|-----------------7-----5--|--L-----2-------------4--|
--L-----0----0--0--0--0--|--0--0--0--0--0--5-----3--|--L-----0----0--0--0--2--|
-------------------------|--------------------------|-------------------------|


                                                                 SH           
  Q.     Q.     E  E     H        E    Q     E      E   E   E    H        E   
----------------------|--------------------------|---------------------------|
----------------------|--------------------------|---------------------------|
----------------------|--------------5g7p----5h--|--7p--5~--L----------------|
--L------3------2--2--|--L--------L--------------|-------------<>7--------x--|
--L------1------0--0--|--L--------L--------------|---------------7--------x--|
----------------------|--------------------------|---------------------------|


  Verso A                                               
          PM PM PM PM PM PM    PM PM PM PM PM PM PM PM  
  Q       E  E  E  E  E  E     E  E  E  E  E  E  E  E   
----------------------------|--------------------------|
----------------------------|--------------------------|
----------------------------|--------------------------|
--2-------------------------|--------------------------|
--0-------0--0--0--0--0--0--|--0--0--0--0--0--0--0--0--|
----------------------------|--------------------------|


  PM PM PM PM PM PM PM PM    PM PM PM PM PM PM   PM  
  E  E  E  E  E  E  E  E     E  E  E  E  E  Q    E   
--------------------------|-------------------------|
--------------------------|-------------------------|
--------------------------|-------------------------|
--------------------------|-------------------------|
--0--0--0--0--0--0--0--0--|--0--0--0--0--0--3----0--|
--------------------------|-------------------------|


  Pre-Coro A                                                                
                                         PM PM PM PM                        
  E          E  H.              H        E  E  E  E     E  E  H.            
-----------------------------|-----------------------|---------------------|
-----------------------------|-----------------------|---------------------|
-----------------------------|-----------------------|---------------------|
-----------------------------|-----------------------|---------------------|
--L----------5--L------------|--L--------------------|-----5--5------------|
-------------3--L------------|--L--------3--5--5--5--|--L--3--3------------|


                       Verso A                                               
                               PM PM PM PM PM PM    PM PM PM PM PM PM PM PM  
  H.           Q       Q       E  E  E  E  E  E     E  E  E  E  E  E  E  E   
--------------------|----------------------------|--------------------------|
--------------------|----------------------------|--------------------------|
--------------------|----------------------------|--------------------------|
--------------------|--2-------------------------|--------------------------|
--L------------5----|--0-------0--0--0--0--0--0--|--0--0--0--0--0--0--0--0--|
--L------------3----|----------------------------|--------------------------|


  PM PM PM PM PM PM PM PM    PM PM PM PM PM PM   PM  
  E  E  E  E  E  E  E  E     E  E  E  E  E  Q    E   
--------------------------|-------------------------|
--------------------------|-------------------------|
--------------------------|-------------------------|
--------------------------|-------------------------|
--0--0--0--0--0--0--0--0--|--0--0--0--0--0--3----0--|
--------------------------|-------------------------|


  Pre-Coro A                                                                
                                         PM PM PM PM                        
  E          E  H.              H        E  E  E  E     E  E  H.            
-----------------------------|-----------------------|---------------------|
-----------------------------|-----------------------|---------------------|
-----------------------------|-----------------------|---------------------|
-----------------------------|-----------------------|---------------------|
--L----------5--L------------|--L--------------------|-----5--5------------|
-------------3--L------------|--L--------3--5--5--5--|--L--3--3------------|


                          Coro A                                
           PM PM PM PM                                          
  H        E  E  E  E     W                   W                 
-----------------------|-------------------|-------------------|
-----------------------|-------------------|-------------------|
-----------------------|-------------------|-------------------|
-----------------------|--5----------------|--L----------------|
--L--------------0--2--|--3----------------|--L----------------|
--L--------3--3--------|-------------------|-------------------|


  W                   W                   W                   W                 
-------------------|-------------------|-------------------|-------------------|
-------------------|-------------------|-------------------|-------------------|
-------------------|-------------------|-------------------|-------------------|
-------------------|-------------------|-------------------|-------------------|
--5----------------|--L----------------|--7----------------|--L----------------|
--3----------------|--L----------------|--5----------------|--L----------------|


                                          Main Riff                    
                                                    PM PM PM PM PM PM  
  W                   W                   Q         E  E  E  E  E  E   
-------------------|-------------------|------------------------------|
-------------------|-------------------|------------------------------|
-------------------|-------------------|------------------------------|
-------------------|-------------------|--2---------------------------|
--5----------------|--L----------------|--0---------0--0--0--0--0--0--|
--3----------------|--L----------------|------------------------------|


  PM PM PM PM PM                        PM PM PM PM    PM PM PM PM PM           
  E  E  E  E  E  E.  S E     E  E  Q    E  E  E  E     E  E  E  E  E  E.  S E   
--------------------------|-------------------------|--------------------------|
--------------------------|-------------------------|--------------------------|
--------------------------|-------------------------|--------------------------|
-----------------7-----5--|--L-----2----------------|-----------------7-----5--|
--0--0--0--0--0--5-----3--|--L-----0----0--0--0--0--|--0--0--0--0--0--5-----3--|
--------------------------|-------------------------|--------------------------|


             PM PM PM                                                       
  E  E  Q    E  E  E  E     Q.     Q.     E  E     H        E    Q     E    
-------------------------|----------------------|--------------------------|
-------------------------|----------------------|--------------------------|
-------------------------|----------------------|--------------5g7p----5h--|
--L-----2-------------4--|--L------3------2--2--|--L--------L--------------|
--L-----0----0--0--0--2--|--L------1------0--0--|--L--------L--------------|
-------------------------|----------------------|--------------------------|


              SH                  PM PM PM PM PM PM    PM PM PM PM PM           
  E   E  E    E  H           Q    E  E  E  E  E  E     E  E  E  E  E  E.  S E   
--------------------------|-------------------------|--------------------------|
--------------------------|-------------------------|--------------------------|
--7p--5-------------------|-------------------------|--------------------------|
---------7--<>7--L--------|--2----------------------|-----------------7-----5--|
--------------7--L--------|--0----0--0--0--0--0--0--|--0--0--0--0--0--5-----3--|
--------------------------|-------------------------|--------------------------|


             PM PM PM PM    PM PM PM PM PM                        PM PM PM     
  E  E  Q    E  E  E  E     E  E  E  E  E  E.  S E     E  E  Q    E  E  E  E   
-------------------------|--------------------------|-------------------------|
-------------------------|--------------------------|-------------------------|
-------------------------|--------------------------|-------------------------|
--L-----2----------------|-----------------7-----5--|--L-----2-------------4--|
--L-----0----0--0--0--0--|--0--0--0--0--0--5-----3--|--L-----0----0--0--0--2--|
-------------------------|--------------------------|-------------------------|


  Q.     Q.     E  E     H        E    Q     E      E   E   E  H        E   
----------------------|--------------------------|-------------------------|
----------------------|--------------------------|-------------------------|
----------------------|--------------5g7p----5h--|--7p--5~--L--L-----------|
--L------3------2--2--|--L--------L--------------|-------------------------|
--L------1------0--0--|--L--------L--------------|-------------------------|
----------------------|--------------------------|-------------------------|


  Verso A                                               
          PM PM PM PM PM PM    PM PM PM PM PM PM PM PM  
  Q       E  E  E  E  E  E     E  E  E  E  E  E  E  E   
----------------------------|--------------------------|
----------------------------|--------------------------|
----------------------------|--------------------------|
--2-------------------------|--------------------------|
--0-------0--0--0--0--0--0--|--0--0--0--0--0--0--0--0--|
----------------------------|--------------------------|


  PM PM PM PM PM PM PM PM    PM PM PM PM PM PM   PM  
  E  E  E  E  E  E  E  E     E  E  E  E  E  Q    E   
--------------------------|-------------------------|
--------------------------|-------------------------|
--------------------------|-------------------------|
--------------------------|-------------------------|
--0--0--0--0--0--0--0--0--|--0--0--0--0--0--3----0--|
--------------------------|-------------------------|


  Pre-Coro A                                                                
                                         PM PM PM PM                        
  E          E  H.              H        E  E  E  E     E  E  H.            
-----------------------------|-----------------------|---------------------|
-----------------------------|-----------------------|---------------------|
-----------------------------|-----------------------|---------------------|
-----------------------------|-----------------------|---------------------|
--L----------5--L------------|--L--------------------|-----5--5------------|
-------------3--L------------|--L--------3--5--5--5--|--L--3--3------------|


                       Verso A                                               
                               PM PM PM PM PM PM    PM PM PM PM PM PM PM PM  
  H.           Q       Q       E  E  E  E  E  E     E  E  E  E  E  E  E  E   
--------------------|----------------------------|--------------------------|
--------------------|----------------------------|--------------------------|
--------------------|----------------------------|--------------------------|
--------------------|--2-------------------------|--------------------------|
--L------------5----|--0-------0--0--0--0--0--0--|--0--0--0--0--0--0--0--0--|
--L------------3----|----------------------------|--------------------------|


  PM PM PM PM PM PM PM PM    PM PM PM PM PM PM   PM  
  E  E  E  E  E  E  E  E     E  E  E  E  E  Q    E   
--------------------------|-------------------------|
--------------------------|-------------------------|
--------------------------|-------------------------|
--------------------------|-------------------------|
--0--0--0--0--0--0--0--0--|--0--0--0--0--0--3----0--|
--------------------------|-------------------------|


  Pre-Coro A                                                                
                                         PM PM PM PM                        
  E          E  H.              H        E  E  E  E     E  E  H.            
-----------------------------|-----------------------|---------------------|
-----------------------------|-----------------------|---------------------|
-----------------------------|-----------------------|---------------------|
-----------------------------|-----------------------|---------------------|
--L----------5--L------------|--L--------------------|-----5--5------------|
-------------3--L------------|--L--------3--5--5--5--|--L--3--3------------|


                          Coro A                                
           PM PM PM PM                                          
  H        E  E  E  E     W                   W                 
-----------------------|-------------------|-------------------|
-----------------------|-------------------|-------------------|
-----------------------|-------------------|-------------------|
-----------------------|--5----------------|--L----------------|
--L--------------0--2--|--3----------------|--L----------------|
--L--------3--3--------|-------------------|-------------------|


  W                   W                   W                   W                 
-------------------|-------------------|-------------------|-------------------|
-------------------|-------------------|-------------------|-------------------|
-------------------|-------------------|-------------------|-------------------|
-------------------|-------------------|-------------------|-------------------|
--5----------------|--L----------------|--7----------------|--L----------------|
--3----------------|--L----------------|--5----------------|--L----------------|


                                          Main Riff                    
                                                    PM PM PM PM PM PM  
  W                   W                   Q         E  E  E  E  E  E   
-------------------|-------------------|------------------------------|
-------------------|-------------------|------------------------------|
-------------------|-------------------|------------------------------|
-------------------|-------------------|--2---------------------------|
--5----------------|--L----------------|--0---------0--0--0--0--0--0--|
--3----------------|--L----------------|------------------------------|


  PM PM PM PM PM                        PM PM PM PM    PM PM PM PM PM           
  E  E  E  E  E  E.  S E     E  E  Q    E  E  E  E     E  E  E  E  E  E.  S E   
--------------------------|-------------------------|--------------------------|
--------------------------|-------------------------|--------------------------|
--------------------------|-------------------------|--------------------------|
-----------------7-----5--|--L-----2----------------|-----------------7-----5--|
--0--0--0--0--0--5-----3--|--L-----0----0--0--0--0--|--0--0--0--0--0--5-----3--|
--------------------------|-------------------------|--------------------------|


             PM PM PM                                                       
  E  E  Q    E  E  E  E     Q.     Q.     E  E     H        E    Q     E    
-------------------------|----------------------|--------------------------|
-------------------------|----------------------|--------------------------|
-------------------------|----------------------|--------------5g7p----5h--|
--L-----2-------------4--|--L------3------2--2--|--L--------L--------------|
--L-----0----0--0--0--2--|--L------1------0--0--|--L--------L--------------|
-------------------------|----------------------|--------------------------|


              SH                  PM PM PM PM PM PM    PM PM PM PM PM           
  E   E  E    E  H           Q    E  E  E  E  E  E     E  E  E  E  E  E.  S E   
--------------------------|-------------------------|--------------------------|
--------------------------|-------------------------|--------------------------|
--7p--5-------------------|-------------------------|--------------------------|
---------7--<>7--L--------|--2----------------------|-----------------7-----5--|
--------------7--L--------|--0----0--0--0--0--0--0--|--0--0--0--0--0--5-----3--|
--------------------------|-------------------------|--------------------------|


             PM PM PM PM    PM PM PM PM PM                        PM PM PM     
  E  E  Q    E  E  E  E     E  E  E  E  E  E.  S E     E  E  Q    E  E  E  E   
-------------------------|--------------------------|-------------------------|
-------------------------|--------------------------|-------------------------|
-------------------------|--------------------------|-------------------------|
--L-----2----------------|-----------------7-----5--|--L-----2-------------4--|
--L-----0----0--0--0--0--|--0--0--0--0--0--5-----3--|--L-----0----0--0--0--2--|
-------------------------|--------------------------|-------------------------|


                                                                 SH            
  Q.     Q.     E  E     H        E    E   E   E      E  E  E    E  Q    Q     
----------------------|----------------------------|--------------------------|
----------------------|----------------------------|--------------------------|
----------------------|--------------5g7p--5h--6h--|--7--5--------------------|
--L------3------2--2--|--L--------L----------------|--------7--<>7--L---------|
--L------1------0--0--|--L--------L----------------|-------------7--L----7----|
----------------------|----------------------------|---------------------5----|


  Riff C                                                                      
  E      E  Q.     E  E  E     Q    E  Q    E  Q       E  E  Q.     E  E  E   
----------------------------|-----------------------|------------------------|
----------------------------|-----------------------|------------------------|
----------------------------|-----------------------|------------------------|
----------------------------|-----------------------|------------------------|
----------------------------|----------7-------7----|------------------------|
--7------6--5------5--7--6--|--5-------5-------5----|--7--6--5------5--7--6--|


  Q    E  Q    E  Q       E  E  Q.     E  E  E     Q    E  Q    Q.      
-----------------------|------------------------|----------------------|
-----------------------|------------------------|----------------------|
-----------------------|------------------------|----------------------|
-----------------------|------------------------|----------------------|
----------7-------7----|------------------------|----------7----L------|
--5-------5-------5----|--7--6--5------5--7--6--|--5-------5----L------|


                                                  Break A           
  E  E  Q.     E  E  E     Q    E  Q    Q.        W                 
------------------------|----------------------|-------------------|
------------------------|----------------------|-------------------|
------------------------|----------------------|-------------------|
------------------------|----------------------|--4----------------|
------------------------|----------7----L------|--2----------------|
--7--6--5------5--7--6--|--5-------5----L------|-------------------|


  W                   W                   W                   W                 
-------------------|-------------------|-------------------|-------------------|
-------------------|-------------------|-------------------|-------------------|
-------------------|-------------------|-------------------|-------------------|
--L----------------|--2----------------|--L----------------|--4----------------|
--L----------------|--0----------------|--L----------------|--2----------------|
-------------------|-------------------|-------------------|-------------------|


  W                   W                   W                 
-------------------|-------------------|-------------------|
-------------------|-------------------|-------------------|
-------------------|-------------------|-------------------|
--L----------------|--2----------------|--L----------------|
--L----------------|--0----------------|--L----------------|
-------------------|-------------------|-------------------|


  Riff D (a)                                                  
  PM         PM PM PM PM PM PM PM    PM PM PM PM PM PM PM PM  
  E          E  E  E  E  E  E  E     E  E  E  E  E  E  E  E   
----------------------------------|--------------------------|
----------------------------------|--------------------------|
----------------------------------|--------------------------|
----------------------------------|--------------------------|
--2----------2--2--2--5--5--5--5--|--4--4--4--4--3--3--3--3--|
----------------------------------|--------------------------|


  PM PM PM PM PM PM PM PM    PM PM PM PM PM PM PM PM  
  E  E  E  E  E  E  E  E     E  E  E  E  E  E  E  E   
--------------------------|--------------------------|
--------------------------|--------------------------|
--------------------------|--------------------------|
--------------------------|--------------------------|
--2--2--2--2--5--5--5--5--|--4--4--4--4--3--3--3--3--|
--------------------------|--------------------------|


  Riff D (b)                                                  
  PM         PM PM PM PM PM PM PM    PM PM PM PM PM PM PM PM  
  E          E  E  E  E  E  E  E     E  E  E  E  E  E  E  E   
----------------------------------|--------------------------|
----------------------------------|--------------------------|
----------------------------------|--------------------------|
----------------------------------|--------------------------|
--2----------2--2--2--5--5--5--5--|--4--4--4--4--3--3--3--3--|
----------------------------------|--------------------------|


  PM PM PM PM PM PM PM PM    PM PM PM PM PM PM PM PM  
  E  E  E  E  E  E  E  E     E  E  E  E  E  E  E  E   
--------------------------|--------------------------|
--------------------------|--------------------------|
--------------------------|--------------------------|
--------------------------|--------------------------|
--2--2--2--2--5--5--5--5--|--4--4--4--4--3--3--3--3--|
--------------------------|--------------------------|


  Verso B                                                  
  PM      PM PM PM PM PM PM PM    PM PM PM PM PM PM PM PM  
  E       E  E  E  E  E  E  E     E  E  E  E  E  E  E  E   
-------------------------------|--------------------------|
-------------------------------|--------------------------|
-------------------------------|--------------------------|
-------------------------------|--------------------------|
--2-------2--2--2--5--5--5--5--|--4--4--4--4--3--3--3--3--|
-------------------------------|--------------------------|


  PM PM PM PM PM PM PM PM    PM PM PM PM PM PM PM PM  
  E  E  E  E  E  E  E  E     E  E  E  E  E  E  E  E   
--------------------------|--------------------------|
--------------------------|--------------------------|
--------------------------|--------------------------|
--------------------------|--------------------------|
--2--2--2--2--5--5--5--5--|--4--4--4--4--3--3--3--3--|
--------------------------|--------------------------|


  PM PM PM PM PM PM PM PM    PM PM PM PM PM PM PM PM  
  E  E  E  E  E  E  E  E     E  E  E  E  E  E  E  E   
--------------------------|--------------------------|
--------------------------|--------------------------|
--------------------------|--------------------------|
--------------------------|--------------------------|
--2--2--2--2--5--5--5--5--|--4--4--4--4--3--3--3--3--|
--------------------------|--------------------------|


  PM PM PM PM PM PM PM PM    PM PM PM PM PM PM PM PM  
  E  E  E  E  E  E  E  E     E  E  E  E  E  E  E  E   
--------------------------|--------------------------|
--------------------------|--------------------------|
--------------------------|--------------------------|
--------------------------|--------------------------|
--2--2--2--2--5--5--5--5--|--4--4--4--4--3--3--3--3--|
--------------------------|--------------------------|


  PM PM PM PM PM PM PM PM    PM PM PM PM PM PM PM PM  
  E  E  E  E  E  E  E  E     E  E  E  E  E  E  E  E   
--------------------------|--------------------------|
--------------------------|--------------------------|
--------------------------|--------------------------|
--------------------------|--------------------------|
--2--2--2--2--5--5--5--5--|--4--4--4--4--3--3--3--3--|
--------------------------|--------------------------|


  PM PM PM PM PM PM PM PM    PM PM PM PM PM PM PM PM  
  E  E  E  E  E  E  E  E     E  E  E  E  E  E  E  E   
--------------------------|--------------------------|
--------------------------|--------------------------|
--------------------------|--------------------------|
--------------------------|--------------------------|
--2--2--2--2--5--5--5--5--|--4--4--4--4--3--3--3--3--|
--------------------------|--------------------------|


  PM PM PM PM PM PM PM PM    PM PM PM PM PM PM PM PM  
  E  E  E  E  E  E  E  E     E  E  E  E  E  E  E  E   
--------------------------|--------------------------|
--------------------------|--------------------------|
--------------------------|--------------------------|
--------------------------|--------------------------|
--2--2--2--2--5--5--5--5--|--4--4--4--4--3--3--3--3--|
--------------------------|--------------------------|


                                                         Pre-Coro B        
  PM PM PM PM PM PM PM PM    PM PM PM PM                                   
  E  E  E  E  E  E  E  E     E  E  E  E  E   E  E.  S    W                 
--------------------------|---------------------------|-------------------|
--------------------------|---------------------------|-------------------|
--------------------------|---------------------------|-------------------|
--------------------------|---------------------------|-------------------|
--2--2--2--2--5--5--5--5--|--4--4--4--4--5h--7--5-----|--5----------------|
--------------------------|---------------------------|--3----------------|


                                                              Coro B            
  W                   W                   W                   W                 
-------------------|-------------------|-------------------|-------------------|
-------------------|-------------------|-------------------|-------------------|
-------------------|-------------------|-------------------|-------------------|
-------------------|-------------------|-------------------|--4----------------|
--L----------------|--4----------------|--L----------------|--2----------------|
--L----------------|--2----------------|--L----------------|-------------------|


  W                   W                   W                   W                 
-------------------|-------------------|-------------------|-------------------|
-------------------|-------------------|-------------------|-------------------|
-------------------|-------------------|-------------------|-------------------|
--2----------------|-------------------|-------------------|--4----------------|
--0----------------|--5----------------|--4----------------|--2----------------|
-------------------|--3----------------|--2----------------|-------------------|


  W                   W                   W                   W                 
-------------------|-------------------|-------------------|-------------------|
-------------------|-------------------|-------------------|-------------------|
-------------------|-------------------|-------------------|-------------------|
--2----------------|-------------------|-------------------|--4----------------|
--0----------------|--5----------------|--4----------------|--2----------------|
-------------------|--3----------------|--2----------------|-------------------|


                                                              Break B           
  W                   W                   W                   W                 
-------------------|-------------------|-------------------|-------------------|
-------------------|-------------------|-------------------|-------------------|
-------------------|-------------------|-------------------|-------------------|
--2----------------|-------------------|-------------------|--4----------------|
--0----------------|--5----------------|--4----------------|--2----------------|
-------------------|--3----------------|--2----------------|-------------------|


  H        H           W                   H        Q    Q     
--------------------|-------------------|---------------------|
--------------------|-------------------|---------------------|
--------------------|-------------------|---------------------|
--L--------2--------|--4----------------|--L--------2----2----|
--L--------0--------|--2----------------|--L--------0----0----|
--------------------|-------------------|---------------------|


  W                   H        Q    Q       W                 
-------------------|---------------------|-------------------|
-------------------|---------------------|-------------------|
-------------------|---------------------|-------------------|
--4----------------|--L-------------2----|--4----------------|
--2----------------|--L--------4----0----|--2----------------|
-------------------|-----------2---------|-------------------|


                       Interludio 1 (a)                   
  H        H           Q                E  E  E  Q    E   
--------------------|------------------------------------|
--------------------|------------------------------------|
--------------------|------------------------------------|
--L--------4--------|------------------------------------|
--L--------2--------|-------------------5-----4--5-------|
--------------------|--7-------------------7----------7--|


  Q    E  E  E  Q    E     Q    E  E  E  Q    E     E  E  E  E  E  E  E  E   
------------------------|------------------------|--------------------------|
------------------------|------------------------|--------------------------|
------------------------|------------------------|--------------------------|
------------------------|------------------------|--------------4-----------|
-------5-----4--5-------|-------5-----4--5-------|-----4--5--7-----7--5--4--|
--7-------7----------7--|--7-------7----------7--|--7-----------------------|


  Q    E  E  E  Q    E     Q    E  E  E  Q    E     Q    E  E  E  Q    E   
------------------------|------------------------|------------------------|
------------------------|------------------------|------------------------|
------------------------|------------------------|------------------------|
------------------------|------------------------|------------------------|
-------5-----4--5-------|-------5-----4--5-------|-------5-----4--5-------|
--7-------7----------7--|--7-------7----------7--|--7-------7----------7--|


                             Interludio 1 (b)                   
  E  E  E  E  E  E  E  E     Q                E  E  E  Q    E   
--------------------------|------------------------------------|
--------------------------|------------------------------------|
--------------------------|------------------------------------|
--------------4-----------|-------------------4--------4-------|
-----4--5--7-----7--5--4--|--5-------------------5--7-------5--|
--7-----------------------|------------------------------------|


  Q    E  E  E  Q    E     Q    E  E  E  Q    E     E  E  E  E  E  E  E  E   
------------------------|------------------------|--------------------------|
------------------------|------------------------|--------------------------|
------------------------|------------------------|--------------------------|
-------4--------4-------|-------4--------4-------|--------4--5--7--5--4-----|
--5-------5--7-------5--|--5-------5--7-------5--|--5--7-----------------7--|
------------------------|------------------------|--------------------------|


  Q    E  E  E  Q    E     Q    E  E  E  Q    E     Q    E  E  E  Q    E   
------------------------|------------------------|------------------------|
------------------------|------------------------|------------------------|
------------------------|------------------------|------------------------|
-------4--------4-------|-------4--------4-------|-------4--------4-------|
--5-------5--7-------5--|--5-------5--7-------5--|--5-------5--7-------5--|
------------------------|------------------------|------------------------|


                             Interludio 2 (a)                   
  E  E  E  E  E  E  E  E     Q                E  E  E  Q    E   
--------------------------|------------------------------------|
--------------------------|------------------------------------|
--------------------------|------------------------------------|
--------4--5--7--5--4-----|------------------------------------|
--5--7-----------------7--|-------------------5-----4--5-------|
--------------------------|--7-------------------7----------7--|


  Q    E  E  E  Q    E     Q    E  E  E  Q    E     E  E  E  E  E  E  E  E   
------------------------|------------------------|--------------------------|
------------------------|------------------------|--------------------------|
------------------------|------------------------|--------------------------|
------------------------|------------------------|--------------4-----------|
-------5-----4--5-------|-------5-----4--5-------|-----4--5--7-----7--5--4--|
--L-------7----------7--|--L-------7----------7--|--L-----------------------|


  Q    E  E  E  Q    E     Q    E  E  E  Q    E     Q    E  E  E  Q    E   
------------------------|------------------------|------------------------|
------------------------|------------------------|------------------------|
------------------------|------------------------|------------------------|
------------------------|------------------------|------------------------|
-------5-----4--5-------|-------5-----4--5-------|-------5-----4--5-------|
--7-------7----------7--|--L-------7----------7--|--L-------7----------7--|


                             Interludio 2 (b)                   
  E  E  E  E  E  E  E  E     Q                E  E  E  Q    E   
--------------------------|------------------------------------|
--------------------------|------------------------------------|
--------------------------|------------------------------------|
--------------4-----------|-------------------4--------4-------|
-----4--5--7-----7--5--4--|--5-------------------5--7-------5--|
--L-----------------------|------------------------------------|


  Q    E  E  E  Q    E     Q    E  E  E  Q    E     E  E  E  E  E  E  E  E   
------------------------|------------------------|--------------------------|
------------------------|------------------------|--------------------------|
------------------------|------------------------|--------------------------|
-------4--------4-------|-------4--------4-------|--------4--5--7--5--4-----|
--L-------5--7-------5--|--L-------5--7-------5--|--L--7-----------------7--|
------------------------|------------------------|--------------------------|


  Q    E  E  E  Q    E     Q    E  E  E  Q    E     Q    E  E  E  Q    E   
------------------------|------------------------|------------------------|
------------------------|------------------------|------------------------|
------------------------|------------------------|------------------------|
-------4--------4-------|-------4--------4-------|-------4--------4-------|
--5-------5--7-------5--|--L-------5--7-------5--|--L-------5--7-------5--|
------------------------|------------------------|------------------------|


                             Riff E                                        
  E  E  E  E  E  E  E  E     Q      Q    Q    Q       Q    Q    Q    Q     
--------------------------|------------------------|----------------------|
--------------------------|------------------------|----------------------|
--------------------------|------------------------|----------------------|
--------4--5--7--5--4-----|---------4----5----4----|-------4----5----4----|
--L--7-----------------7--|--2---------------------|--0-------------------|
--------------------------|------------------------|----------------------|


  Q    Q    Q    Q       Q    Q    Q    Q       Q    Q    Q    Q     
----------------------|----------------------|----------------------|
----------------------|----------------------|----------------------|
----------------------|----------------------|----------------------|
-------4----5----4----|-------4----5----4----|-------4----5----4----|
----------------------|----------------------|--2-------------------|
--2-------------------|--3-------------------|----------------------|


  Q    Q    Q    Q       Q    Q    Q    Q       Q    Q    Q    Q     
----------------------|----------------------|----------------------|
----------------------|----------------------|----------------------|
----------------------|----------------------|----------------------|
-------2----4----2----|-------0----2----0----|----------------------|
--0-------------------|----------------------|-------4----5----4----|
----------------------|--2-------------------|--3-------------------|


  Verso C (a)                                                               
  Q           Q    Q    Q       Q    Q    Q    Q       Q    Q    Q    Q     
-----------------------------|----------------------|----------------------|
-----------------------------|----------------------|----------------------|
-----------------------------|----------------------|----------------------|
--------------4----5----4----|-------4----5----4----|-------4----5----4----|
--2--------------------------|--0-------------------|----------------------|
-----------------------------|----------------------|--2-------------------|


  Q    Q    Q    Q       Q    Q    Q    Q       Q    Q    Q    Q     
----------------------|----------------------|----------------------|
----------------------|----------------------|----------------------|
----------------------|----------------------|----------------------|
-------4----5----4----|-------4----5----4----|-------2----4----2----|
----------------------|--2-------------------|--0-------------------|
--3-------------------|----------------------|----------------------|


  Q    Q    Q    Q       Q    Q    Q    Q       Q    Q    Q    Q     
----------------------|----------------------|----------------------|
----------------------|----------------------|----------------------|
----------------------|----------------------|----------------------|
-------0----2----0----|----------------------|-------4----5----4----|
----------------------|-------4----5----4----|--2-------------------|
--2-------------------|--3-------------------|----------------------|


  Q    Q    Q    Q       Q    Q    Q    Q       Q    Q    Q    Q     
----------------------|----------------------|----------------------|
----------------------|----------------------|----------------------|
----------------------|----------------------|----------------------|
-------4----5----4----|-------4----5----4----|-------4----5----4----|
--0-------------------|----------------------|----------------------|
----------------------|--2-------------------|--3-------------------|


  Q    Q    Q    Q       Q    Q    Q    Q       Q    Q    Q    Q     
----------------------|----------------------|----------------------|
----------------------|----------------------|----------------------|
----------------------|----------------------|----------------------|
-------4----5----4----|-------2----4----2----|-------0----2----0----|
--2-------------------|--0-------------------|----------------------|
----------------------|----------------------|--2-------------------|


                         Break C                               
  Q    Q    Q    Q       W                   W                 
----------------------|-------------------|-------------------|
----------------------|-------------------|-------------------|
----------------------|-------------------|-------------------|
----------------------|--4----------------|--L----------------|
-------4----5----4----|--2----------------|--L----------------|
--3-------------------|-------------------|-------------------|


  W                   W                   W                   W                 
-------------------|-------------------|-------------------|-------------------|
-------------------|-------------------|-------------------|-------------------|
-------------------|-------------------|-------------------|-------------------|
--2----------------|--L----------------|-------------------|-------------------|
--0----------------|--L----------------|--5----------------|--L----------------|
-------------------|-------------------|--3----------------|--L----------------|


  Verso C (b)                                                               
  Q           Q    Q    Q       Q    Q    Q    Q       Q    Q    Q    Q     
-----------------------------|----------------------|----------------------|
-----------------------------|----------------------|----------------------|
-----------------------------|----------------------|----------------------|
--------------4----5----4----|-------4----5----4----|-------4----5----4----|
--2--------------------------|--0-------------------|----------------------|
-----------------------------|----------------------|--2-------------------|


  Q    Q    Q    Q       Q    Q    Q    Q       Q    Q    Q    Q     
----------------------|----------------------|----------------------|
----------------------|----------------------|----------------------|
----------------------|----------------------|----------------------|
-------4----5----4----|-------4----5----4----|-------2----4----2----|
----------------------|--2-------------------|--0-------------------|
--3-------------------|----------------------|----------------------|


  Q    Q    Q    Q       Q    Q    Q    Q       Q    Q    Q    Q     
----------------------|----------------------|----------------------|
----------------------|----------------------|----------------------|
----------------------|----------------------|----------------------|
-------0----2----0----|----------------------|-------4----5----4----|
----------------------|-------4----5----4----|--2-------------------|
--2-------------------|--3-------------------|----------------------|


  Q    Q    Q    Q       Q    Q    Q    Q       Q    Q    Q    Q     
----------------------|----------------------|----------------------|
----------------------|----------------------|----------------------|
----------------------|----------------------|----------------------|
-------4----5----4----|-------4----5----4----|-------4----5----4----|
--0-------------------|----------------------|----------------------|
----------------------|--2-------------------|--3-------------------|


  Q    Q    Q    Q       Q    Q    Q    Q       Q    Q    Q    Q     
----------------------|----------------------|----------------------|
----------------------|----------------------|----------------------|
----------------------|----------------------|----------------------|
-------4----5----4----|-------2----4----2----|-------0----2----0----|
--2-------------------|--0-------------------|----------------------|
----------------------|----------------------|--2-------------------|


                         Main Riff                       
                                   PM PM PM PM PM PM PM  
  H        Q    E  E     E         E  E  E  E  E  E  E   
----------------------|---------------------------------|
----------------------|---------------------------------|
----------------------|---------------------------------|
-----------2----L--2--|--L------------------------------|
--5--------0----L--0--|--L---------0--0--0--0--0--0--0--|
--3-------------------|---------------------------------|


  PM PM PM PM PM                        PM PM PM PM    PM PM PM PM PM           
  E  E  E  E  E  E.  S E     E  E  Q    E  E  E  E     E  E  E  E  E  E.  S E   
--------------------------|-------------------------|--------------------------|
--------------------------|-------------------------|--------------------------|
--------------------------|-------------------------|--------------------------|
-----------------7-----5--|--L-----2----------------|-----------------7-----5--|
--0--0--0--0--0--5-----3--|--L-----0----0--0--0--0--|--0--0--0--0--0--5-----3--|
--------------------------|-------------------------|--------------------------|


             PM PM PM                                                       
  E  E  Q    E  E  E  E     Q.     Q.     E  E     H        E    Q     E    
-------------------------|----------------------|--------------------------|
-------------------------|----------------------|--------------------------|
-------------------------|----------------------|--------------5g7p----5h--|
--L-----2-------------4--|--L------3------2--2--|--L--------L--------------|
--L-----0----0--0--0--2--|--L------1------0--0--|--L--------L--------------|
-------------------------|----------------------|--------------------------|


              SH                  PM PM PM PM PM PM    PM PM PM PM PM           
  E   E  E    E  H           Q    E  E  E  E  E  E     E  E  E  E  E  E.  S E   
--------------------------|-------------------------|--------------------------|
--------------------------|-------------------------|--------------------------|
--7p--5-------------------|-------------------------|--------------------------|
---------7--<>7--L--------|--2----------------------|-----------------7-----5--|
--------------7--L--------|--0----0--0--0--0--0--0--|--0--0--0--0--0--5-----3--|
--------------------------|-------------------------|--------------------------|


             PM PM PM PM    PM PM PM PM PM                        PM PM PM     
  E  E  Q    E  E  E  E     E  E  E  E  E  E.  S E     E  E  Q    E  E  E  E   
-------------------------|--------------------------|-------------------------|
-------------------------|--------------------------|-------------------------|
-------------------------|--------------------------|-------------------------|
--L-----2----------------|-----------------7-----5--|--L-----2-------------4--|
--L-----0----0--0--0--0--|--0--0--0--0--0--5-----3--|--L-----0----0--0--0--2--|
-------------------------|--------------------------|-------------------------|


                                                                 SH           
  Q.     Q.     E  E     H        E    E   E   E      E  E  E    E  H         
----------------------|----------------------------|-------------------------|
----------------------|----------------------------|-------------------------|
----------------------|--------------5g7p--5h--6h--|--7--5-------------------|
--L------3------2--2--|--L--------L----------------|--------7--<>7--L--------|
--L------1------0--0--|--L--------L----------------|-------------7--L--------|
----------------------|----------------------------|-------------------------|


  Outro A                                                                 
  Q       E  E  E  E  Q       W                    Q    E  E  E  E  Q     
---------------------------|--------------------|------------------------|
---------------------------|--------------------|------------------------|
---------------------------|--------------------|------------------------|
---------------------------|--------------------|-------4--------4--L----|
----------5-----4--5--L----|--L~----------------|--5-------5--7----------|
--7----------7-------------|--------------------|------------------------|


  W                    Q    E  E  E  E  Q       W                  
--------------------|------------------------|--------------------|
--------------------|------------------------|--------------------|
--------------------|-------7-----6--7--L----|--L~----------------|
--L~----------------|--9-------9-------------|--------------------|
--------------------|------------------------|--------------------|
--------------------|------------------------|--------------------|


  Outro B                                                            
  Q       Q    Q    Q       Q    Q    Q    Q       W                 
-------------------------|----------------------|-------------------|
-------------------------|----------------------|-------------------|
-------------------------|----------------------|-------------------|
--9------------9---------|--9---------9---------|--9----------------|
--7------------7---------|--7---------7---------|--7----------------|
-------------------------|----------------------|-------------------|


  W                   W                   W                   W                 
-------------------|-------------------|-------------------|-------------------|
-------------------|-------------------|-------------------|-------------------|
-------------------|-------------------|-------------------|-------------------|
--L----------------|--L----------------|--L----------------|--L----------------|
--L----------------|--L----------------|--L----------------|--L----------------|
-------------------|-------------------|-------------------|-------------------|


  W                   W                   W                 
-------------------|-------------------|-------------------|
-------------------|-------------------|-------------------|
-------------------|-------------------|-------------------|
--L----------------|--L----------------|--L----------------|
--L----------------|--L----------------|--L----------------|
-------------------|-------------------|-------------------|


  H        H          
--------------------||
--------------------||
--------------------||
--9-----------------||
--7-----------------||
--------------------||




Guitar #2:

Jim Sirroto


          Intro / Main Riff                                   
                                        PM PM PM PM PM PM PM  
     S    H.                E  E     E  E  E  E  E  E  E  E   
E||----|--------------------------|--------------------------|
B||----|--------------------------|--------------------------|
G||----|--------------------------|--------------------------|
D||----|--------------------------|--------------------------|
A||----|-----------------------7--|--L-----------------------|
E||----|-----------------------5--|--L--5--5--5--5--5--5--5--|


  PM PM PM PM                           PM PM PM PM    PM PM PM PM              
  E  E  E  E  E  E.  S E     E  E  Q    E  E  E  E     E  E  E  E  E  E.  S E   
--------------------------|-------------------------|--------------------------|
--------------------------|-------------------------|--------------------------|
--------------------------|-------------------------|--------------------------|
-----------------7-----5--|--L----------------------|-----------------7-----5--|
--------------7--5-----3--|--L-----7----------------|--------------7--5-----3--|
--5--5--5--5--5-----------|--------5----5--5--5--5--|--5--5--5--5--5-----------|


             PM PM PM                                                       
  E  E  Q    E  E  E  E     Q.     Q.     E  E     H        E    Q     E    
-------------------------|----------------------|--------------------------|
-------------------------|----------------------|--------------------------|
-------------------------|----------------------|--------------5g7p----5h--|
--L----------------------|----------------------|--------------------------|
--L-----7-------------9--|--L------8------5--7--|--L--------L--------------|
--------5----5--5--5--7--|--L------6------3--5--|--L--------L--------------|


                                 PM PM PM PM PM PM    PM PM PM PM              
  E   E  E  E   H           Q    E  E  E  E  E  E     E  E  E  E  E  E.  S E   
-------------------------|-------------------------|--------------------------|
-------------------------|-------------------------|--------------------------|
--7p--5------------------|-------------------------|--------------------------|
---------7--7~--L--------|-------------------------|-----------------7-----5--|
------------7---L--------|--7----------------------|--------------7--5-----3--|
-------------------------|--5----5--5--5--5--5--5--|--5--5--5--5--5-----------|


             PM PM PM PM    PM PM PM PM                           PM PM PM     
  E  E  Q    E  E  E  E     E  E  E  E  E  E.  S E     E  E  Q    E  E  E  E   
-------------------------|--------------------------|-------------------------|
-------------------------|--------------------------|-------------------------|
-------------------------|--------------------------|-------------------------|
--L----------------------|-----------------7-----5--|--L----------------------|
--L-----7----------------|--------------7--5-----3--|--L-----7-------------9--|
--------5----5--5--5--5--|--5--5--5--5--5-----------|--------5----5--5--5--7--|


  Q.     Q.     E  E     H        E    Q     E      E   E  E  E   Q.     E   
----------------------|--------------------------|--------------------------|
----------------------|--------------------------|--------------------------|
----------------------|--------------5g7p----5h--|--7p--5-------------------|
----------------------|--------------------------|---------7--7~--L------5--|
--L------8------5--7--|--L--------L--------------|------------7---L------3--|
--L------6------3--5--|--L--------L--------------|--------------------------|


  Riff B                                               
         PM PM PM PM PM PM    PM PM PM PM              
  Q      E  E  E  E  E  E     E  E  E  E  E  E.  S E   
---------------------------|--------------------------|
---------------------------|--------------------------|
---------------------------|-----------------7-----5--|
--7------------------------|--------------7--5-----3--|
--5------5--5--5--5--5--5--|--5--5--5--5--5-----------|
---------------------------|--------------------------|


             PM PM PM PM    PM PM PM PM                           PM PM PM     
  E  E  Q    E  E  E  E     E  E  E  E  E  E.  S E     E  E  Q    E  E  E  E   
-------------------------|--------------------------|-------------------------|
-------------------------|--------------------------|-------------------------|
--L----------------------|-----------------7-----5--|--L----------------------|
--L-----7----------------|--------------7--5-----3--|--L-----7-------------9--|
--------5----5--5--5--5--|--5--5--5--5--5-----------|--------5----5--5--5--7--|
-------------------------|--------------------------|-------------------------|


  Q.     Q.     E  E     H        E    Q     E     H.            E  E   
----------------------|-------------------------|----------------------|
----------------------|-------------------------|----------------------|
----------------------|--------------5g7p----5--|--7~------------L-----|
--L------8------5--7--|--L--------L-------------|--7-------------L--5--|
--L------6------3--5--|--L--------L-------------|-------------------3--|
----------------------|-------------------------|----------------------|


       PM PM PM PM PM PM    PM PM PM PM                           PM PM PM PM  
  Q    E  E  E  E  E  E     E  E  E  E  E  E.  S E     E  E  Q    E  E  E  E   
-------------------------|--------------------------|-------------------------|
-------------------------|--------------------------|-------------------------|
-------------------------|-----------------7-----5--|--L----------------------|
--7----------------------|--------------7--5-----3--|--L-----7----------------|
--5----5--5--5--5--5--5--|--5--5--5--5--5-----------|--------5----5--5--5--5--|
-------------------------|--------------------------|-------------------------|


  PM PM PM PM                           PM PM PM                            
  E  E  E  E  E  E.  S E     E  E  Q    E  E  E  E     Q.     Q.     E  E   
--------------------------|-------------------------|----------------------|
--------------------------|-------------------------|----------------------|
-----------------7-----5--|--L----------------------|----------------------|
--------------7--5-----3--|--L-----7-------------9--|--L------8------5--7--|
--5--5--5--5--5-----------|--------5----5--5--5--7--|--L------6------3--5--|
--------------------------|-------------------------|----------------------|


  H        E    Q     E      E   E  E  E   Q    E  E   
--------------------------|---------------------------|
--------------------------|---------------------------|
--------------5g7p----5h--|--7p--5-----7~--L----L-----|
--L--------L--------------|---------7--7---L----L-----|
--L--------L--------------|------------------------7--|
--------------------------|------------------------5--|


  Main Riff                                                  
            PM PM PM PM PM PM PM    PM PM PM PM              
  E         E  E  E  E  E  E  E     E  E  E  E  E  E.  S E   
---------------------------------|--------------------------|
---------------------------------|--------------------------|
---------------------------------|--------------------------|
---------------------------------|-----------------7-----5--|
--L------------------------------|--------------7--5-----3--|
--L---------5--5--5--5--5--5--5--|--5--5--5--5--5-----------|


             PM PM PM PM    PM PM PM PM                           PM PM PM     
  E  E  Q    E  E  E  E     E  E  E  E  E  E.  S E     E  E  Q    E  E  E  E   
-------------------------|--------------------------|-------------------------|
-------------------------|--------------------------|-------------------------|
-------------------------|--------------------------|-------------------------|
--L----------------------|-----------------7-----5--|--L----------------------|
--L-----7----------------|--------------7--5-----3--|--L-----7-------------9--|
--------5----5--5--5--5--|--5--5--5--5--5-----------|--------5----5--5--5--7--|


  Q.     Q.     E  E     H        E    Q     E      E  E   H        Q     
----------------------|--------------------------|-----------------------|
----------------------|--------------------------|-----------------------|
----------------------|--------------5g7p----5h--|--7--------------------|
----------------------|--------------------------|-----7~--L--------5----|
--L------8------5--7--|--L--------L--------------|-----7---L--------5----|
--L------6------3--5--|--L--------L--------------|-----------------------|


       PM PM PM PM PM PM    PM PM PM PM                           PM PM PM PM  
  Q    E  E  E  E  E  E     E  E  E  E  E  E.  S E     E  E  Q    E  E  E  E   
-------------------------|--------------------------|-------------------------|
-------------------------|--------------------------|-------------------------|
-------------------------|--------------------------|-------------------------|
-------------------------|-----------------7-----5--|--L----------------------|
--7----------------------|--------------7--5-----3--|--L-----7----------------|
--5----5--5--5--5--5--5--|--5--5--5--5--5-----------|--------5----5--5--5--5--|


  PM PM PM PM                           PM PM PM                            
  E  E  E  E  E  E.  S E     E  E  Q    E  E  E  E     Q.     Q.     E  E   
--------------------------|-------------------------|----------------------|
--------------------------|-------------------------|----------------------|
--------------------------|-------------------------|----------------------|
-----------------7-----5--|--L----------------------|----------------------|
--------------7--5-----3--|--L-----7-------------9--|--L------8------5--7--|
--5--5--5--5--5-----------|--------5----5--5--5--7--|--L------6------3--5--|


  H        E    Q     E      E  E   E  H         E   
--------------------------|-------------------------|
--------------------------|-------------------------|
--------------5g7p----5h--|--7----------------------|
--------------------------|-----7~--L--7~-----------|
--L--------L--------------|-----7---L--7------------|
--L--------L--------------|-------------------------|


  Verso A                                               
          PM PM PM PM PM PM    PM PM PM PM PM PM PM PM  
  Q       E  E  E  E  E  E     E  E  E  E  E  E  E  E   
----------------------------|--------------------------|
----------------------------|--------------------------|
----------------------------|--------------------------|
----------------------------|--------------------------|
--7-------------------------|--------------------------|
--5-------5--5--5--5--5--5--|--5--5--5--5--5--5--5--5--|


  PM PM PM PM PM PM PM PM    PM PM PM PM              
  E  E  E  E  E  E  E  E     E  E  E  E  E   Q    E   
--------------------------|--------------------------|
--------------------------|--------------------------|
--------------------------|--------------------------|
--------------------------|--------------------------|
--------------------------|--------------7--10----7--|
--5--5--5--5--5--5--5--5--|--5--5--5--5--5---8----5--|


  Pre-Coro A                                                                
  E          E  H.              H        E  E  E  E     E  E  H.            
-----------------------------|-----------------------|---------------------|
-----------------------------|-----------------------|---------------------|
-----------------------------|-----------------------|---------------------|
-----------------------------|-----------------------|---------------------|
--L----------5--L------------|--L--------5--7--7--7--|--L--5--5------------|
-------------3--L------------|--L--------3--5--5--5--|-----3--3------------|


                       Verso A                                               
                               PM PM PM PM PM PM    PM PM PM PM PM PM PM PM  
  H.           Q       Q       E  E  E  E  E  E     E  E  E  E  E  E  E  E   
--------------------|----------------------------|--------------------------|
--------------------|----------------------------|--------------------------|
--------------------|----------------------------|--------------------------|
--------------------|----------------------------|--------------------------|
--L------------5----|--7-------------------------|--------------------------|
--L------------3----|--5-------5--5--5--5--5--5--|--5--5--5--5--5--5--5--5--|


  PM PM PM PM PM PM PM PM    PM PM PM PM              
  E  E  E  E  E  E  E  E     E  E  E  E  E   Q    E   
--------------------------|--------------------------|
--------------------------|--------------------------|
--------------------------|--------------------------|
--------------------------|--------------------------|
--------------------------|--------------7--10----7--|
--5--5--5--5--5--5--5--5--|--5--5--5--5--5---8----5--|


  Pre-Coro A                                                                
  E          E  H.              H        E  E  E  E     E  E  H.            
-----------------------------|-----------------------|---------------------|
-----------------------------|-----------------------|---------------------|
-----------------------------|-----------------------|---------------------|
-----------------------------|-----------------------|---------------------|
--L----------5--L------------|--L--------5--7--7--7--|--L--5--5------------|
-------------3--L------------|--L--------3--5--5--5--|-----3--3------------|


                         Coro A                                     
  H        Q    E  E     H.           E  E     Q    E  Q    Q.      
----------------------|---------------------|----------------------|
----------------------|---------------------|--5-------3-----------|
----------------------|---------------------|-------5-------4------|
----------------------|------------------5--|----------------------|
--L--------5----7--9--|--3------------L-----|----------------------|
--L--------3----5--7--|---------------------|----------------------|


  Q.     H        E     Q    E  Q    Q.        H.            E  E   
---------------------|----------------------|----------------------|
--3------------------|--3-------------------|----------------------|
---------4-----------|-------4--5----4------|--5~------------L-----|
------------------5--|----------------------|----------------------|
---------------------|----------------------|-------------------7--|
---------------------|----------------------|----------------------|


  Q    E  Q    Q.        Q.     Q.     Q        W                 
----------------------|----------------------|-------------------|
----------------------|----------------------|-------------------|
----------5-----------|--4-------------------|-------------------|
--7------------7------|---------5------------|-------------------|
-------7--------------|----------------7~----|--L----------------|
----------------------|----------------------|-------------------|


  Main Riff                                               
            PM PM PM PM PM PM    PM PM PM PM              
  Q         E  E  E  E  E  E     E  E  E  E  E  E.  S E   
------------------------------|--------------------------|
------------------------------|--------------------------|
------------------------------|--------------------------|
------------------------------|-----------------7-----5--|
--7---------------------------|--------------7--5-----3--|
--5---------5--5--5--5--5--5--|--5--5--5--5--5-----------|


             PM PM PM PM    PM PM PM PM                           PM PM PM     
  E  E  Q    E  E  E  E     E  E  E  E  E  E.  S E     E  E  Q    E  E  E  E   
-------------------------|--------------------------|-------------------------|
-------------------------|--------------------------|-------------------------|
-------------------------|--------------------------|-------------------------|
--L----------------------|-----------------7-----5--|--L----------------------|
--L-----7----------------|--------------7--5-----3--|--L-----7-------------9--|
--------5----5--5--5--5--|--5--5--5--5--5-----------|--------5----5--5--5--7--|


  Q.     Q.     E  E     H        E    Q     E      E   E  E  E   H         
----------------------|--------------------------|-------------------------|
----------------------|--------------------------|-------------------------|
----------------------|--------------5g7p----5h--|--7p--5------------------|
----------------------|--------------------------|---------7--7~--L--------|
--L------8------5--7--|--L--------L--------------|------------7---L--------|
--L------6------3--5--|--L--------L--------------|-------------------------|


       PM PM PM PM PM PM    PM PM PM PM                           PM PM PM PM  
  Q    E  E  E  E  E  E     E  E  E  E  E  E.  S E     E  E  Q    E  E  E  E   
-------------------------|--------------------------|-------------------------|
-------------------------|--------------------------|-------------------------|
-------------------------|--------------------------|-------------------------|
-------------------------|-----------------7-----5--|--L----------------------|
--7----------------------|--------------7--5-----3--|--L-----7----------------|
--5----5--5--5--5--5--5--|--5--5--5--5--5-----------|--------5----5--5--5--5--|


  PM PM PM PM                           PM PM PM                            
  E  E  E  E  E  E.  S E     E  E  Q    E  E  E  E     Q.     Q.     E  E   
--------------------------|-------------------------|----------------------|
--------------------------|-------------------------|----------------------|
--------------------------|-------------------------|----------------------|
-----------------7-----5--|--L----------------------|----------------------|
--------------7--5-----3--|--L-----7-------------9--|--L------8------5--7--|
--5--5--5--5--5-----------|--------5----5--5--5--7--|--L------6------3--5--|


  H        E    Q     E      E  E   E  H        E   
--------------------------|------------------------|
--------------------------|------------------------|
--------------5g7p----5h--|--7---------------------|
--------------------------|-----7~--L--L-----------|
--L--------L--------------|-----7---L--L-----------|
--L--------L--------------|------------------------|


  Verso A                                               
          PM PM PM PM PM PM    PM PM PM PM PM PM PM PM  
  Q       E  E  E  E  E  E     E  E  E  E  E  E  E  E   
----------------------------|--------------------------|
----------------------------|--------------------------|
----------------------------|--------------------------|
----------------------------|--------------------------|
--7-------------------------|--------------------------|
--5-------5--5--5--5--5--5--|--5--5--5--5--5--5--5--5--|


  PM PM PM PM PM PM PM PM    PM PM PM PM              
  E  E  E  E  E  E  E  E     E  E  E  E  E   Q    E   
--------------------------|--------------------------|
--------------------------|--------------------------|
--------------------------|--------------------------|
--------------------------|--------------------------|
--------------------------|--------------7--10----7--|
--5--5--5--5--5--5--5--5--|--5--5--5--5--5---8----5--|


  Pre-Coro A                                                                
  E          E  H.              H        E  E  E  E     E  E  H.            
-----------------------------|-----------------------|---------------------|
-----------------------------|-----------------------|---------------------|
-----------------------------|-----------------------|---------------------|
-----------------------------|-----------------------|---------------------|
--L----------5--L------------|--L--------5--7--7--7--|--L--5--5------------|
-------------3--L------------|--L--------3--5--5--5--|-----3--3------------|


                       Verso A                                               
                               PM PM PM PM PM PM    PM PM PM PM PM PM PM PM  
  H.           Q       Q       E  E  E  E  E  E     E  E  E  E  E  E  E  E   
--------------------|----------------------------|--------------------------|
--------------------|----------------------------|--------------------------|
--------------------|----------------------------|--------------------------|
--------------------|----------------------------|--------------------------|
--L------------5----|--7-------------------------|--------------------------|
--L------------3----|--5-------5--5--5--5--5--5--|--5--5--5--5--5--5--5--5--|


  PM PM PM PM PM PM PM PM    PM PM PM PM              
  E  E  E  E  E  E  E  E     E  E  E  E  E   Q    E   
--------------------------|--------------------------|
--------------------------|--------------------------|
--------------------------|--------------------------|
--------------------------|--------------------------|
--------------------------|--------------7--10----7--|
--5--5--5--5--5--5--5--5--|--5--5--5--5--5---8----5--|


  Pre-Coro A                                                                
  E          E  H.              H        E  E  E  E     E  E  H.            
-----------------------------|-----------------------|---------------------|
-----------------------------|-----------------------|---------------------|
-----------------------------|-----------------------|---------------------|
-----------------------------|-----------------------|---------------------|
--L----------5--L------------|--L--------5--7--7--7--|--L--5--5------------|
-------------3--L------------|--L--------3--5--5--5--|-----3--3------------|


                         Coro A                                     
  H        Q    E  E     H.           E  E     Q    E  Q    Q.      
----------------------|---------------------|----------------------|
----------------------|---------------------|--5-------3-----------|
----------------------|---------------------|-------5-------4------|
----------------------|------------------5--|----------------------|
--L--------5----7--9--|--3------------L-----|----------------------|
--L--------3----5--7--|---------------------|----------------------|


  Q.     H        E     Q    E  Q    Q.        H.            E  E   
---------------------|----------------------|----------------------|
--3------------------|--3-------------------|----------------------|
---------4-----------|-------4--5----4------|--5~------------L-----|
------------------5--|----------------------|----------------------|
---------------------|----------------------|-------------------7--|
---------------------|----------------------|----------------------|


  Q    E  Q    Q.        Q.     Q.     Q        W                 
----------------------|----------------------|-------------------|
----------------------|----------------------|-------------------|
----------5-----------|--4-------------------|-------------------|
--7------------7------|---------5------------|-------------------|
-------7--------------|----------------7~----|--L----------------|
----------------------|----------------------|-------------------|


  Main Riff                                               
            PM PM PM PM PM PM    PM PM PM PM              
  Q         E  E  E  E  E  E     E  E  E  E  E  E.  S E   
------------------------------|--------------------------|
------------------------------|--------------------------|
------------------------------|--------------------------|
------------------------------|-----------------7-----5--|
--7---------------------------|--------------7--5-----3--|
--5---------5--5--5--5--5--5--|--5--5--5--5--5-----------|


             PM PM PM PM    PM PM PM PM                           PM PM PM     
  E  E  Q    E  E  E  E     E  E  E  E  E  E.  S E     E  E  Q    E  E  E  E   
-------------------------|--------------------------|-------------------------|
-------------------------|--------------------------|-------------------------|
-------------------------|--------------------------|-------------------------|
--L----------------------|-----------------7-----5--|--L----------------------|
--L-----7----------------|--------------7--5-----3--|--L-----7-------------9--|
--------5----5--5--5--5--|--5--5--5--5--5-----------|--------5----5--5--5--7--|


  Q.     Q.     E  E     H        E    Q     E      E   E  E  E   H         
----------------------|--------------------------|-------------------------|
----------------------|--------------------------|-------------------------|
----------------------|--------------5g7p----5h--|--7p--5------------------|
----------------------|--------------------------|---------7--7~--L--------|
--L------8------5--7--|--L--------L--------------|------------7---L--------|
--L------6------3--5--|--L--------L--------------|-------------------------|


       PM PM PM PM PM PM    PM PM PM PM                           PM PM PM PM  
  Q    E  E  E  E  E  E     E  E  E  E  E  E.  S E     E  E  Q    E  E  E  E   
-------------------------|--------------------------|-------------------------|
-------------------------|--------------------------|-------------------------|
-------------------------|--------------------------|-------------------------|
-------------------------|-----------------7-----5--|--L----------------------|
--7----------------------|--------------7--5-----3--|--L-----7----------------|
--5----5--5--5--5--5--5--|--5--5--5--5--5-----------|--------5----5--5--5--5--|


  PM PM PM PM                           PM PM PM                            
  E  E  E  E  E  E.  S E     E  E  Q    E  E  E  E     Q.     Q.     E  E   
--------------------------|-------------------------|----------------------|
--------------------------|-------------------------|----------------------|
--------------------------|-------------------------|----------------------|
-----------------7-----5--|--L----------------------|----------------------|
--------------7--5-----3--|--L-----7-------------9--|--L------8------5--7--|
--5--5--5--5--5-----------|--------5----5--5--5--7--|--L------6------3--5--|


  H        E    E   E   E      E  E  E  E   Q    Q     
----------------------------|-------------------------|
----------------------------|-------------------------|
--------------5g7p--5h--6h--|--7----------------------|
----------------------------|-----7--7--7~--L---------|
--L--------L----------------|-----7-----7---L----7----|
--L--------L----------------|--------------------5----|


  Riff C                                                                      
  E      E  Q.     E  E  E     Q    E  Q    E  Q       E  E  Q.     E  E  E   
----------------------------|-----------------------|------------------------|
----------------------------|-----------------------|------------------------|
----------------------------|----------9-------9----|------------------------|
--9------8--7------7--9--8--|--7-------7-------7----|--9--8--7------7--9--8--|
----------------------------|-----------------------|------------------------|
----------------------------|-----------------------|------------------------|


  Q    E  Q    E  Q       E  E  Q.     E  E  E     Q    E  Q    Q.      
-----------------------|------------------------|----------------------|
-----------------------|------------------------|----------------------|
----------9-------9----|------------------------|----------9----L------|
--7-------7-------7----|--9--8--7------7--9--8--|--7-------7----L------|
-----------------------|------------------------|----------------------|
-----------------------|------------------------|----------------------|


                                                  Break A           
  E  E  Q.     E  E  E     Q    E  Q    Q.        W                 
------------------------|----------------------|-------------------|
------------------------|----------------------|-------------------|
------------------------|----------9----L------|-------------------|
--9--8--7------7--9--8--|--7-------7----L------|--9----------------|
------------------------|----------------------|--9----------------|
------------------------|----------------------|--7----------------|


   Pick-Slide                                                  
   S          S   S   S   S   S  S  S  S  S  S  S  S  S  S  S  
--------------------------------------------------------------|
--------------------------------------------------------------|
--------------------------------------------------------------|
--------------------------------------------------------------|
--15S--------14S-13S-12S-11S-10S-9S-8S-7S-6S-5S-4S-3S-2S-1S-0-|
--15S--------14S-13S-12S-11S-10S-9S-8S-7S-6S-5S-4S-3S-2S-1S-0-|


  W                   S  S  S  S  S  S  S  S  S  S   S   S   S   S   S   S  
-------------------|-------------------------------------------------------|
-------------------|-------------------------------------------------------|
-------------------|-------------------------------------------------------|
--7----------------|-------------------------------------------------------|
--7----------------|--0S-1S-2S-3S-4S-5S-6S-7S-8S-9S-10S-11S-12S-13S-14S-15-|
--5----------------|--0S-1S-2S-3S-4S-5S-6S-7S-8S-9S-10S-11S-12S-13S-14S-15-|


  W                    S   S   S   S   S   S  S  S  S  S  S  S  S  S  S  S  
-------------------|-------------------------------------------------------|
-------------------|-------------------------------------------------------|
-------------------|-------------------------------------------------------|
--9----------------|-------------------------------------------------------|
--9----------------|--15S-14S-13S-12S-11S-10S-9S-8S-7S-6S-5S-4S-3S-2S-1S-0-|
--7----------------|--15S-14S-13S-12S-11S-10S-9S-8S-7S-6S-5S-4S-3S-2S-1S-0-|


                                          Riff D (a)                       
                                          PM         PM PM PM PM PM PM PM  
  W                   W                   E          E  E  E  E  E  E  E   
-------------------|-------------------|----------------------------------|
-------------------|-------------------|----------------------------------|
-------------------|-------------------|----------------------------------|
--7----------------|--L----------------|----------------------------------|
--7----------------|--L----------------|--2----------2--2--2--5--5--5--5--|
--5----------------|--L----------------|----------------------------------|


  PM PM PM PM PM PM PM PM    PM PM PM PM PM PM PM PM  
  E  E  E  E  E  E  E  E     E  E  E  E  E  E  E  E   
--------------------------|--------------------------|
--------------------------|--------------------------|
--------------------------|--------------------------|
--------------------------|--------------------------|
--4--4--4--4--3--3--3--3--|--2--2--2--2--5--5--5--5--|
--------------------------|--------------------------|


                             Riff D (b)                       
  PM PM PM PM PM PM PM PM    PM         PM PM PM PM PM PM PM  
  E  E  E  E  E  E  E  E     E          E  E  E  E  E  E  E   
--------------------------|----------------------------------|
--------------------------|----------------------------------|
--------------------------|----------------------------------|
--------------------------|----------------------------------|
--4--4--4--4--3--3--3--3--|--5----------5--5--5--9--9--9--9--|
--------------------------|----------------------------------|


  PM PM PM PM PM PM PM PM    PM PM PM PM PM PM PM PM  
  E  E  E  E  E  E  E  E     E  E  E  E  E  E  E  E   
--------------------------|--------------------------|
--------------------------|--------------------------|
--------------------------|--------------------------|
--------------------------|--------------------------|
--8--8--8--8--7--7--7--7--|--5--5--5--5--9--9--9--9--|
--------------------------|--------------------------|


                             Verso B                       
  PM PM PM PM PM PM PM PM    PM      PM PM PM PM PM PM PM  
  E  E  E  E  E  E  E  E     E       E  E  E  E  E  E  E   
--------------------------|-------------------------------|
--------------------------|-------------------------------|
--------------------------|-------------------------------|
--------------------------|-------------------------------|
--8--8--8--8--7--7--7--7--|--5-------5--5--5--9--9--9--9--|
--------------------------|-------------------------------|


  PM PM PM PM PM PM PM PM    PM PM PM PM PM PM PM PM  
  E  E  E  E  E  E  E  E     E  E  E  E  E  E  E  E   
--------------------------|--------------------------|
--------------------------|--------------------------|
--------------------------|--------------------------|
--------------------------|--------------------------|
--8--8--8--8--7--7--7--7--|--5--5--5--5--9--9--9--9--|
--------------------------|--------------------------|


  PM PM PM PM PM PM PM PM    PM PM PM PM PM PM PM PM  
  E  E  E  E  E  E  E  E     E  E  E  E  E  E  E  E   
--------------------------|--------------------------|
--------------------------|--------------------------|
--------------------------|--------------------------|
--------------------------|--------------------------|
--8--8--8--8--7--7--7--7--|--5--5--5--5--9--9--9--9--|
--------------------------|--------------------------|


  PM PM PM PM PM PM PM PM    PM PM PM PM PM PM PM PM  
  E  E  E  E  E  E  E  E     E  E  E  E  E  E  E  E   
--------------------------|--------------------------|
--------------------------|--------------------------|
--------------------------|--------------------------|
--------------------------|--------------------------|
--8--8--8--8--7--7--7--7--|--5--5--5--5--9--9--9--9--|
--------------------------|--------------------------|


  PM PM PM PM PM PM PM PM    PM PM PM PM PM PM PM PM  
  E  E  E  E  E  E  E  E     E  E  E  E  E  E  E  E   
--------------------------|--------------------------|
--------------------------|--------------------------|
--------------------------|--------------------------|
--------------------------|--------------------------|
--8--8--8--8--7--7--7--7--|--5--5--5--5--9--9--9--9--|
--------------------------|--------------------------|


  PM PM PM PM PM PM PM PM    PM PM PM PM PM PM PM PM  
  E  E  E  E  E  E  E  E     E  E  E  E  E  E  E  E   
--------------------------|--------------------------|
--------------------------|--------------------------|
--------------------------|--------------------------|
--------------------------|--------------------------|
--8--8--8--8--7--7--7--7--|--5--5--5--5--9--9--9--9--|
--------------------------|--------------------------|


  PM PM PM PM PM PM PM PM    PM PM PM PM PM PM PM PM  
  E  E  E  E  E  E  E  E     E  E  E  E  E  E  E  E   
--------------------------|--------------------------|
--------------------------|--------------------------|
--------------------------|--------------------------|
--------------------------|--------------------------|
--8--8--8--8--7--7--7--7--|--5--5--5--5--9--9--9--9--|
--------------------------|--------------------------|


  PM PM PM PM PM PM PM PM    PM PM PM PM PM PM PM PM  
  E  E  E  E  E  E  E  E     E  E  E  E  E  E  E  E   
--------------------------|--------------------------|
--------------------------|--------------------------|
--------------------------|--------------------------|
--------------------------|--------------------------|
--8--8--8--8--7--7--7--7--|--5--5--5--5--9--9--9--9--|
--------------------------|--------------------------|


                               Pre-Coro B                            
  PM PM PM PM                                                        
  E  E  E  E  E    E  E.  S    W                   W                 
----------------------------|-------------------|-------------------|
----------------------------|-------------------|-------------------|
----------------------------|-------------------|-------------------|
----------------------------|--5----------------|--L----------------|
--8--8--8--8--9h--10--9-----|--5----------------|--L----------------|
----------------------------|--3----------------|--L----------------|


                                          Coro B                                
  W                   W                   W                   W                 
-------------------|-------------------|-------------------|-------------------|
-------------------|-------------------|-------------------|-------------------|
-------------------|-------------------|--4----------------|--6----------------|
--4----------------|--L----------------|--4----------------|--6----------------|
--4----------------|--L----------------|--2----------------|--4----------------|
--2----------------|--L----------------|-------------------|-------------------|


  W                   W                   W                   W                 
-------------------|-------------------|-------------------|-------------------|
-------------------|-------------------|-------------------|-------------------|
--7----------------|-------------------|--4----------------|--6----------------|
--7----------------|--4----------------|--4----------------|--6----------------|
--5----------------|--4----------------|--2----------------|--4----------------|
-------------------|--2----------------|-------------------|-------------------|


  W                   W                   W                   W                 
-------------------|-------------------|-------------------|-------------------|
-------------------|-------------------|-------------------|-------------------|
--7----------------|-------------------|--4----------------|--6----------------|
--7----------------|--4----------------|--4----------------|--6----------------|
--5----------------|--4----------------|--2----------------|--4----------------|
-------------------|--2----------------|-------------------|-------------------|


                                          Break B           
  W                   W                   W                 
-------------------|-------------------|-------------------|
-------------------|-------------------|-------------------|
--7----------------|-------------------|--4----------------|
--7----------------|--4----------------|--4----------------|
--5----------------|--4----------------|--2----------------|
-------------------|--2----------------|-------------------|


   Pick-Slide                                                  
   S          S   S   S   S   S  S  S  S  S  S  S  S  S  S  S  
--------------------------------------------------------------|
--------------------------------------------------------------|
--------------------------------------------------------------|
--------------------------------------------------------------|
--15S--------14S-13S-12S-11S-10S-9S-8S-7S-6S-5S-4S-3S-2S-1S-0-|
--15S--------14S-13S-12S-11S-10S-9S-8S-7S-6S-5S-4S-3S-2S-1S-0-|


  W                   W                   W                 
-------------------|-------------------|-------------------|
-------------------|-------------------|-------------------|
--4----------------|--L----------------|--4----------------|
--4----------------|--L----------------|--4----------------|
--2----------------|--L----------------|--2----------------|
-------------------|-------------------|-------------------|


  H         S   S   S   S   S   S  S  S    H        E   S   S   S   S   S   S   
----------------------------------------|--------------------------------------|
----------------------------------------|--------------------------------------|
--L-------------------------------------|--4--------L--------------------------|
--L-------------------------------------|--4--------L--------------------------|
--L--------15S-14S-13S-12S-11S-10S-9S-8-|--2--------L--15S-14S-13S-12S-11S-10S-|
-----------15S-14S-13S-12S-11S-10S-9S-8-|--------------15S-14S-13S-12S-11S-10S-|


                               Interludio 1 (a)                 
  S  S  S  S  Q    H           Q                H        E  E   
----------------------------|----------------------------------|
----------------------------|----------------------------------|
----------------------------|----------------------------------|
----------------------------|----------------------------------|
--9S-8S-7S-6S-5-------------|--9----------------------------7--|
--9S-8S-7S-6S-5-------------|--7----------------------------5--|


  Q    H        E  E     Q    H        E  E     E  E  E  E  E  E  E  E   
----------------------|----------------------|--------------------------|
----------------------|----------------------|--------------------------|
----------------------|----------------------|--------------------------|
----------------------|----------------------|--------4--5--7--5--4-----|
--9----------------7--|--9----------------5--|--5--7-----------------7--|
--7----------------5--|--7-------------------|--------------------------|


  Q    H        E  E     Q    H        E  E     Q    H        E  E   
----------------------|----------------------|----------------------|
----------------------|----------------------|----------------------|
----------------------|----------------------|----------------------|
----------------------|----------------------|----------------------|
--9----------------7--|--9----------------7--|--9----------------5--|
--7----------------5--|--7----------------5--|--7-------------------|


                             Interludio 1 (b)                 
  E  E  E  E  E  E  E  E     Q                H        E  E   
--------------------------|----------------------------------|
--------------------------|----------------------------------|
--------------------------|----------------------------------|
--------4--5--7--5--4-----|--7----------------------------6--|
--5--7-----------------7--|--5----------------------------4--|
--------------------------|----------------------------------|


  Q    H        E  E     Q    H        E  E     E  E  E  E  E  E  E  E   
----------------------|----------------------|--------------------------|
----------------------|----------------------|--------------------------|
----------------------|----------------------|-----------4--6--4--------|
--7----------------6--|--7----------------4--|--4--5--7-----------7--5--|
--5----------------4--|--5-------------------|--------------------------|
----------------------|----------------------|--------------------------|


  Q    H        E  E     Q    H        E  E     Q    H        E  E   
----------------------|----------------------|----------------------|
----------------------|----------------------|----------------------|
----------------------|----------------------|----------------------|
--7----------------6--|--7----------------6--|--7----------------4--|
--5----------------4--|--5----------------4--|--5-------------------|
----------------------|----------------------|----------------------|


                             Interludio 2 (a)                   
  E  E  E  E  E  E  E  E     Q                E  E  E  Q    E   
--------------------------|------------------------------------|
--------------------------|------------------------------------|
-----------4--6--4--------|------------------------------------|
--4--5--7-----------7--5--|-------------------4--------4-------|
--------------------------|--5-------------------5--7-------5--|
--------------------------|------------------------------------|


  Q    E  E  E  Q    E     Q    E  E  E  Q    E     E  E  E  E  E  E  E  E   
------------------------|------------------------|--------------------------|
------------------------|------------------------|--------------------------|
------------------------|------------------------|--------------------------|
-------4--------4-------|-------4--------4-------|--------4--5--7--5--4-----|
--L-------5--7-------5--|--L-------5--7-------5--|--L--7-----------------7--|
------------------------|------------------------|--------------------------|


  Q    E  E  E  Q    E     Q    E  E  E  Q    E     Q    E  E  E  Q    E   
------------------------|------------------------|------------------------|
------------------------|------------------------|------------------------|
------------------------|------------------------|------------------------|
-------4--------4-------|-------4--------4-------|-------4--------4-------|
--5-------5--7-------5--|--L-------5--7-------5--|--L-------5--7-------5--|
------------------------|------------------------|------------------------|


                             Interludio 2 (b)                   
  E  E  E  E  E  E  E  E     Q                E  E  E  Q    E   
--------------------------|------------------------------------|
--------------------------|------------------------------------|
--------------------------|------------------------------------|
--------4--5--7--5--4-----|--4----------------7--4--5--7----4--|
--L--7-----------------7--|------------------------------------|
--------------------------|------------------------------------|


  Q    E  E  E  Q    E     Q    E  E  E  Q    E     E  E  E  E  E  E  E  E   
------------------------|------------------------|--------------------------|
------------------------|------------------------|--------------------------|
------------------------|------------------------|-----------4--6--4--------|
--L----7--4--5--7----4--|--L----7--4--5--7----4--|--L--5--7-----------7--5--|
------------------------|------------------------|--------------------------|
------------------------|------------------------|--------------------------|


  Q    E  E  E  Q    E     Q    E  E  E  Q    E     Q    E  E  E  Q    E   
------------------------|------------------------|------------------------|
------------------------|------------------------|------------------------|
------------------------|------------------------|------------------------|
--4----7--4--5--7----4--|--L----7--4--5--7----4--|--L----7--4--5--7----4--|
------------------------|------------------------|------------------------|
------------------------|------------------------|------------------------|


                             Riff E                                
  E  E  E  E  E  E  E  E     W                   W                 
--------------------------|-------------------|-------------------|
--------------------------|-------------------|-------------------|
-----------4--6--4--------|-------------------|-------------------|
--L--5--7-----------7--5--|--9----------------|--7----------------|
--------------------------|--9----------------|--7----------------|
--------------------------|--7----------------|--5----------------|


  W                   W                   W                   W                 
-------------------|-------------------|-------------------|-------------------|
-------------------|-------------------|-------------------|-------------------|
-------------------|-------------------|-------------------|-------------------|
--4----------------|--5----------------|--9----------------|--7----------------|
--4----------------|--5----------------|--9----------------|--7----------------|
--2----------------|--3----------------|--7----------------|--5----------------|


                                          Verso C (a)                           
  W                   W                   W                   W                 
-------------------|-------------------|-------------------|-------------------|
-------------------|-------------------|-------------------|-------------------|
-------------------|-------------------|-------------------|-------------------|
--4----------------|--5----------------|--9----------------|--7----------------|
--4----------------|--5----------------|--9----------------|--7----------------|
--2----------------|--3----------------|--7----------------|--5----------------|


  W                   W                   W                   W                 
-------------------|-------------------|-------------------|-------------------|
-------------------|-------------------|-------------------|-------------------|
-------------------|-------------------|-------------------|-------------------|
--4----------------|--5----------------|--9----------------|--7----------------|
--4----------------|--5----------------|--9----------------|--7----------------|
--2----------------|--3----------------|--7----------------|--5----------------|


  W                   W                   W                   W                 
-------------------|-------------------|-------------------|-------------------|
-------------------|-------------------|-------------------|-------------------|
-------------------|-------------------|-------------------|-------------------|
--4----------------|--5----------------|--9----------------|--7----------------|
--4----------------|--5----------------|--9----------------|--7----------------|
--2----------------|--3----------------|--7----------------|--5----------------|


  W                   W                   W                   W                 
-------------------|-------------------|-------------------|-------------------|
-------------------|-------------------|-------------------|-------------------|
-------------------|-------------------|-------------------|-------------------|
--4----------------|--5----------------|--9----------------|--7----------------|
--4----------------|--5----------------|--9----------------|--7----------------|
--2----------------|--3----------------|--7----------------|--5----------------|


                                          Break C           
  W                   W                   W                 
-------------------|-------------------|-------------------|
-------------------|-------------------|-------------------|
-------------------|-------------------|-------------------|
--4----------------|--5----------------|--9----------------|
--4----------------|--5----------------|--9----------------|
--2----------------|--3----------------|--7----------------|


   Pick-Slide                                                  
   S          S   S   S   S   S  S  S  S  S  S  S  S  S  S  S  
--------------------------------------------------------------|
--------------------------------------------------------------|
--------------------------------------------------------------|
--------------------------------------------------------------|
--15S--------14S-13S-12S-11S-10S-9S-8S-7S-6S-5S-4S-3S-2S-1S-0-|
--15S--------14S-13S-12S-11S-10S-9S-8S-7S-6S-5S-4S-3S-2S-1S-0-|


  W                   Q     S   S   S  S  S  S  S  S Q       W                 
-------------------|--------------------------------------|-------------------|
-------------------|--------------------------------------|-------------------|
-------------------|--------------------------------------|-------------------|
--7----------------|--L-----------------------------------|--5----------------|
--7----------------|--L----12S-11S-10S-9S-8S-7S-6S-5------|--5----------------|
--5----------------|--L----12S-11S-10S-9S-8S-7S-6S-5------|--3----------------|


                             Verso C (b)                           
  S  S  S  S H.              W                   W                 
--------------------------|-------------------|-------------------|
--------------------------|-------------------|-------------------|
--------------------------|-------------------|-------------------|
--------------------------|--9----------------|--7----------------|
--4S-3S-2S-1--------------|--9----------------|--7----------------|
--4S-3S-2S-1--------------|--7----------------|--5----------------|


  W                   W                   W                   W                 
-------------------|-------------------|-------------------|-------------------|
-------------------|-------------------|-------------------|-------------------|
-------------------|-------------------|-------------------|-------------------|
--4----------------|--5----------------|--9----------------|--7----------------|
--4----------------|--5----------------|--9----------------|--7----------------|
--2----------------|--3----------------|--7----------------|--5----------------|


  W                   W                   W                   W                 
-------------------|-------------------|-------------------|-------------------|
-------------------|-------------------|-------------------|-------------------|
-------------------|-------------------|-------------------|-------------------|
--4----------------|--5----------------|--9----------------|--7----------------|
--4----------------|--5----------------|--9----------------|--7----------------|
--2----------------|--3----------------|--7----------------|--5----------------|


  W                   W                   W                   W                 
-------------------|-------------------|-------------------|-------------------|
-------------------|-------------------|-------------------|-------------------|
-------------------|-------------------|-------------------|-------------------|
--4----------------|--5----------------|--9----------------|--7----------------|
--4----------------|--5----------------|--9----------------|--7----------------|
--2----------------|--3----------------|--7----------------|--5----------------|


                                             Main Riff                       
                                                       PM PM PM PM PM PM PM  
  W                   H        Q    E  E     E         E  E  E  E  E  E  E   
-------------------|----------------------|---------------------------------|
-------------------|----------------------|---------------------------------|
-------------------|----------------------|---------------------------------|
--4----------------|--5--------7----L-----|---------------------------------|
--4----------------|--5--------7----L--7--|--L------------------------------|
--2----------------|--3--------5----L--5--|--L---------5--5--5--5--5--5--5--|


  PM PM PM PM                           PM PM PM PM    PM PM PM PM              
  E  E  E  E  E  E.  S E     E  E  Q    E  E  E  E     E  E  E  E  E  E.  S E   
--------------------------|-------------------------|--------------------------|
--------------------------|-------------------------|--------------------------|
--------------------------|-------------------------|--------------------------|
-----------------7-----5--|--L----------------------|-----------------7-----5--|
--------------7--5-----3--|--L-----7----------------|--------------7--5-----3--|
--5--5--5--5--5-----------|--------5----5--5--5--5--|--5--5--5--5--5-----------|


             PM PM PM                                                       
  E  E  Q    E  E  E  E     Q.     Q.     E  E     H        E    Q     E    
-------------------------|----------------------|--------------------------|
-------------------------|----------------------|--------------------------|
-------------------------|----------------------|--------------5g7p----5h--|
--L----------------------|----------------------|--------------------------|
--L-----7-------------9--|--L------8------5--7--|--L--------L--------------|
--------5----5--5--5--7--|--L------6------3--5--|--L--------L--------------|


                                 PM PM PM PM PM PM    PM PM PM PM              
  E   E  E  E   H           Q    E  E  E  E  E  E     E  E  E  E  E  E.  S E   
-------------------------|-------------------------|--------------------------|
-------------------------|-------------------------|--------------------------|
--7p--5------------------|-------------------------|--------------------------|
---------7--7~--L--------|-------------------------|-----------------7-----5--|
------------7---L--------|--7----------------------|--------------7--5-----3--|
-------------------------|--5----5--5--5--5--5--5--|--5--5--5--5--5-----------|


             PM PM PM PM    PM PM PM PM                           PM PM PM     
  E  E  Q    E  E  E  E     E  E  E  E  E  E.  S E     E  E  Q    E  E  E  E   
-------------------------|--------------------------|-------------------------|
-------------------------|--------------------------|-------------------------|
-------------------------|--------------------------|-------------------------|
--L----------------------|-----------------7-----5--|--L----------------------|
--L-----7----------------|--------------7--5-----3--|--L-----7-------------9--|
--------5----5--5--5--5--|--5--5--5--5--5-----------|--------5----5--5--5--7--|


  Q.     Q.     E  E     H        E    E   E   E      E  E  E  E   H         
----------------------|----------------------------|------------------------|
----------------------|----------------------------|------------------------|
----------------------|--------------5g7p--5h--6h--|--7---------------------|
----------------------|----------------------------|-----7--7--7~--L--------|
--L------8------5--7--|--L--------L----------------|-----7-----7---L--------|
--L------6------3--5--|--L--------L----------------|------------------------|


  Outro A                                                                 
  Q       E  E  E  E  Q       W                    Q    E  E  E  E  Q     
---------------------------|--------------------|------------------------|
---------------------------|--------------------|------------------------|
---------------------------|--------------------|------------------------|
----------4--------4--L----|--L~----------------|--4----7--4--5--7--L----|
--5----------5--7----------|--------------------|------------------------|
---------------------------|--------------------|------------------------|


  W                    Q    E  E  E  E  Q       W                  
--------------------|------------------------|--------------------|
--------------------|------------------------|--------------------|
--------------------|------------------------|--------------------|
--L~----------------|-------4--------4--L----|--L~----------------|
--------------------|--5-------5--7----------|--------------------|
--------------------|------------------------|--------------------|


  Outro B                                                            
  Q       Q    Q    Q       Q    Q    Q    Q       W                 
-------------------------|----------------------|-------------------|
-------------------------|----------------------|-------------------|
-------------------------|----------------------|-------------------|
-------------------------|----------------------|--2----------------|
--2------------2---------|--2---------2---------|--2----------------|
--0------------0---------|--0---------0---------|--0----------------|


  W                 
-------------------|
-------------------|
-------------------|
--L----------------|
--L----------------|
--L----------------|


  Pick-Slide                                                                    
  |------3------|   |---3---|   |---3---|   |---3---|   |---3---|   |---3---|   
  S          S  S   S   S   S   S   S   S   S   S   S   S   S   S   S   S   S   
--------------------------------------------------------------------------------
--------------------------------------------------------------------------------
--------------------------------------------------------------------------------
--7S---------8S-9S-10S-11S-12S-13S-14S-15S-16S-17S-18S-19S-20S-21S-22S-23S-24S-2
--------------------------------------------------------------------------------
--7S---------8S-9S-10S-11S-12S-13S-14S-15S-16S-17S-18S-19S-20S-21S-22S-23S-24S-2


   |---3---|   |---3---|   |---3---|   |---3---|   |---3---|   |---3---|   |---3
   S   S   S   S   S   S   S   S   S   S   S   S   S   S   S   S   S   S   S   S
--------------------------------------------------------------------------------
--------------------------------------------------------------------------------
--------------------------------------------------------------------------------
--30S-29S-28S-27S-26S-25S-24S-23S-22S-23S-24S-25S-26S-27S-28S-27S-26S-25S-24S-23
--------------------------------------------------------------------------------
--30S-29S-28S-27S-26S-25S-24S-23S-22S-23S-24S-25S-26S-27S-28S-27S-26S-25S-24S-23


   |---3---|   |---3---|   |---3---|   |---3---|   |---3---|   |---3---|   |---3
   S   S   S   S   S   S   S   S   S   S   S   S   S   S   S   S   S   S   S   S
--------------------------------------------------------------------------------
--------------------------------------------------------------------------------
--------------------------------------------------------------------------------
--30S-29S-28S-27S-26S-25S-24S-23S-22S-21S-22S-23S-29S-28S-27S-26S-25S-24S-23S-22
--------------------------------------------------------------------------------
--30S-29S-28S-27S-26S-25S-24S-23S-22S-21S-22S-23S-29S-28S-27S-26S-25S-24S-23S-22


   |---3---|   |---3---|   |---3---|   |---3---|   |---3---|   |---3---|   |---3
   S   S   S   S   S   S   S   S   S   S   S   S   S   S   S   S   S   S   S   S
--------------------------------------------------------------------------------
--------------------------------------------------------------------------------
--------------------------------------------------------------------------------
--30S-29S-28S-27S-26S-25S-24S-23S-22S-23S-24S-25S-30S-29S-28S-27S-26S-25S-24S-23
--------------------------------------------------------------------------------
--30S-29S-28S-27S-26S-25S-24S-23S-22S-23S-24S-25S-30S-29S-28S-27S-26S-25S-24S-23


                            \0/                                
   |---3---|   |---3---|                                       
   S   S   S   S   S   S    H.               W                 
-------------------------<>12------------|---L----------------|
-----------------------------------------|--------------------|
-----------------------------------------|--------------------|
--18S-17S-16S-15S-14S-13-----------------|--------------------|
-----------------------------------------|--------------------|
--18S-17S-16S-15S-14S-13-----------------|--------------------|


  H        H          
--------------------||
--------------------||
--------------------||
--2-----------------||
--2-----------------||
--0-----------------||



Guitar #3: (Min 3:56)

Jim Sirroto


  Interludio 1 (a)                 
  Q                H        E  E   
----------------------------------|
----------------------------------|
----------------------------------|
----------------------------------|
--9----------------------------7--|
--7----------------------------5--|


  Q    H        E  E     Q    H        E  E     E  E  E  E  E  E  E  E   
----------------------|----------------------|--------------------------|
----------------------|----------------------|--------------7-----------|
----------------------|----------------------|-----6--7--9-----9--7--6--|
----------------------|-------------------9--|--9-----------------------|
--9----------------7--|--9-------------------|--------------------------|
--7----------------5--|--7-------------------|--------------------------|


  Q    H        E  E     Q    H        E  E     Q    H        E  E   
----------------------|----------------------|----------------------|
----------------------|----------------------|----------------------|
----------------------|----------------------|----------------------|
----------------------|----------------------|-------------------9--|
--9----------------7--|--9----------------7--|--9-------------------|
--7----------------5--|--7----------------5--|--7-------------------|


                             Interludio 1 (b)                 
  E  E  E  E  E  E  E  E     Q                H        E  E   
--------------------------|----------------------------------|
--------------7-----------|----------------------------------|
-----6--7--9-----9--7--6--|----------------------------------|
--9-----------------------|--7----------------------------6--|
--------------------------|--5----------------------------4--|
--------------------------|----------------------------------|


  Q    H        E  E     Q    H        E   E   
----------------------|-----------------------|
----------------------|-----------------------|
----------------------|-----------------------|
--7----------------6--|--7----------------12--|
--5----------------4--|--5--------------------|
----------------------|--------------------7--|


   E   E   E   E   E   E   E   E     Q    H        E  E   
----------------------------------|----------------------|
----------------------------------|----------------------|
----------11--12--14--12--11------|----------------------|
--12--14-----------4----------14--|--7----------------6--|
-------4---5---7-------7---5---4--|--5----------------4--|
---7------------------------------|----------------------|


  Q    H        E  E     Q    H        E   E   
----------------------|-----------------------|
----------------------|-----------------------|
----------------------|-----------------------|
--7----------------6--|--7----------------12--|
--5----------------4--|--5--------------------|
----------------------|--------------------7--|


                                     Interludio 2 (a)                   
   E   E   E   E   E   E   E   E     Q                E  E  E  Q    E   
----------------------------------|------------------------------------|
----------------------------------|------------------------------------|
----------11--12--14--12--11------|-------------------7-----6--7-------|
--12--14-----------4----------14--|--9-------------------9----------9--|
-------4---5---7-------7---5---4--|------------------------------------|
---7------------------------------|------------------------------------|


  Q    E  E  E  Q    E     Q    E  E  E  Q    E     E  E  E  E  E  E  E  E   
------------------------|------------------------|--------------------------|
------------------------|------------------------|--------------7-----------|
-------7-----6--7-------|-------7-----6--7-------|-----6--7--9-----9--7--6--|
--L-------9----------9--|--L-------9----------9--|--L-----------------------|
------------------------|------------------------|--------------------------|
------------------------|------------------------|--------------------------|


  Q    E  E  E  Q    E     Q    E  E  E  Q    E     Q    E  E  E  Q    E   
------------------------|------------------------|------------------------|
------------------------|------------------------|------------------------|
-------7-----6--7-------|-------7-----6--7-------|-------7-----6--7-------|
--9-------9----------9--|--L-------9----------9--|--L-------9----------9--|
------------------------|------------------------|------------------------|
------------------------|------------------------|------------------------|


                              Interludio 2 (b)                       
  E  E  E  E  E  E  E  E      Q                E   E   E   Q     E   
--------------------------|-----------------------------------------|
--------------7-----------|-----------------------------------------|
-----6--7--9-----9--7--6--|-------------------11----------11--------|
--L-----------------------|--12-------------------12--14--------12--|
--------------------------|--------------------5-------4---5--------|
--------------------------|---7--------------------7-------------7--|


   Q     E   E   E   Q     E      Q     E   E   E   Q     E   
------------------------------|------------------------------|
------------------------------|------------------------------|
--------11----------11--------|--------11----------11--------|
---L--------12--14--------12--|---L--------12--14--------12--|
---------5-------4---5--------|---------5-------4---5--------|
---L---------7-------------7--|---L---------7-------------7--|


   E   E   E   E   E   E   E   E      Q     E   E   E   Q     E   
----------------------------------|------------------------------|
----------------------------------|------------------------------|
----------11--12--14--12--11------|--------11----------11--------|
---L--14-----------4----------14--|--12--------12--14--------12--|
-------4---5---7-------7---5---4--|---------5-------4---5--------|
---L------------------------------|---7---------7-------------7--|


   Q     E   E   E   Q     E      Q     E   E   E   Q     E   
------------------------------|------------------------------|
------------------------------|------------------------------|
--------11----------11--------|--------11----------11--------|
---L--------12--14--------12--|---L--------12--14--------12--|
---------5-------4---5--------|---------5-------4---5--------|
---L---------7-------------7--|---L---------7-------------7--|


                                     Riff E                                
   E   E   E   E   E   E   E   E     W                   W                 
----------------------------------|-------------------|-------------------|
----------------------------------|-------------------|-------------------|
----------11--12--14--12--11------|--4----------------|--2----------------|
---L--14-----------4----------14--|--4----------------|--2----------------|
-------4---5---7-------7---5---4--|-------------------|-------------------|
---L------------------------------|-------------------|-------------------|


  W                   W                   W                   W                 
-------------------|-------------------|-------------------|-------------------|
-------------------|-------------------|-------------------|-------------------|
-------------------|-------------------|--4----------------|--2----------------|
--4----------------|--5----------------|--4----------------|--2----------------|
--4----------------|--5----------------|-------------------|-------------------|
-------------------|-------------------|-------------------|-------------------|


                                          Verso C (a)                           
  W                   W                   W                   W                 
-------------------|-------------------|-------------------|-------------------|
-------------------|-------------------|-------------------|-------------------|
-------------------|-------------------|--4----------------|--2----------------|
-------------------|-------------------|--4----------------|--2----------------|
--5----------------|--4----------------|-------------------|-------------------|
--5----------------|--4----------------|-------------------|-------------------|


  W                   W                   W                   W                 
-------------------|-------------------|-------------------|-------------------|
-------------------|-------------------|-------------------|-------------------|
-------------------|-------------------|--4----------------|--2----------------|
--4----------------|--5----------------|--4----------------|--2----------------|
--4----------------|--5----------------|-------------------|-------------------|
-------------------|-------------------|-------------------|-------------------|


  W                   W                   W                   W                 
-------------------|-------------------|-------------------|-------------------|
-------------------|-------------------|-------------------|-------------------|
-------------------|-------------------|--4----------------|--2----------------|
-------------------|-------------------|--4----------------|--2----------------|
--5----------------|--4----------------|-------------------|-------------------|
--5----------------|--4----------------|-------------------|-------------------|


  W                   W                   W                   W                 
-------------------|-------------------|-------------------|-------------------|
-------------------|-------------------|-------------------|-------------------|
-------------------|-------------------|--4----------------|--2----------------|
--4----------------|--5----------------|--4----------------|--2----------------|
--4----------------|--5----------------|-------------------|-------------------|
-------------------|-------------------|-------------------|-------------------|


                                          Break C                               
  W                   W                   W                   W                 
-------------------|-------------------|-------------------|-------------------|
-------------------|-------------------|-------------------|-------------------|
-------------------|-------------------|-------------------|-------------------|
-------------------|-------------------|--4----------------|--L----------------|
--5----------------|--4----------------|--2----------------|--L----------------|
--5----------------|--4----------------|-------------------|-------------------|


  W                   W                   W                   W                 
-------------------|-------------------|-------------------|-------------------|
-------------------|-------------------|-------------------|-------------------|
-------------------|-------------------|-------------------|-------------------|
--2----------------|--L----------------|-------------------|-------------------|
--0----------------|--L----------------|--5----------------|--L----------------|
-------------------|-------------------|--3----------------|--L----------------|


  Verso C (b)                                                                   
  W                   W                   W                   W                 
-------------------|-------------------|-------------------|-------------------|
-------------------|-------------------|-------------------|-------------------|
--4----------------|--2----------------|-------------------|-------------------|
--4----------------|--2----------------|--4----------------|--5----------------|
-------------------|-------------------|--4----------------|--5----------------|
-------------------|-------------------|-------------------|-------------------|


  W                   W                   W                   W                 
-------------------|-------------------|-------------------|-------------------|
-------------------|-------------------|-------------------|-------------------|
--4----------------|--2----------------|-------------------|-------------------|
--4----------------|--2----------------|-------------------|-------------------|
-------------------|-------------------|--5----------------|--4----------------|
-------------------|-------------------|--5----------------|--4----------------|


  W                   W                   W                   W                 
-------------------|-------------------|-------------------|-------------------|
-------------------|-------------------|-------------------|-------------------|
--4----------------|--2----------------|-------------------|-------------------|
--4----------------|--2----------------|--4----------------|--5----------------|
-------------------|-------------------|--4----------------|--5----------------|
-------------------|-------------------|-------------------|-------------------|


  W                   W                   W                 
-------------------|-------------------|-------------------|
-------------------|-------------------|-------------------|
--4----------------|--2----------------|-------------------|
--4----------------|--2----------------|-------------------|
-------------------|-------------------|--5----------------|
-------------------|-------------------|--5----------------|


                        Main Riff                             
  H        Q.     E     W                   W                 
---------------------|-------------------|-------------------|
---------------------|-------------------|-------------------|
-----------2---------|-------------------|-------------------|
--5--------2---------|-------------------|-------------------|
--5------------------|-------------------|-------------------|
---------------------|-------------------|-------------------|


  W                   W                   W                   W                 
-------------------|-------------------|-------------------|-------------------|
-------------------|-------------------|-------------------|-------------------|
-------------------|-------------------|-------------------|-------------------|
-------------------|-------------------|-------------------|-------------------|
-------------------|-------------------|-------------------|-------------------|
-------------------|-------------------|-------------------|-------------------|


  W                   W                   W                   W                 
-------------------|-------------------|-------------------|-------------------|
-------------------|-------------------|-------------------|-------------------|
-------------------|-------------------|-------------------|-------------------|
-------------------|-------------------|-------------------|-------------------|
-------------------|-------------------|-------------------|-------------------|
-------------------|-------------------|-------------------|-------------------|


  W                   W                   W                   W                 
-------------------|-------------------|-------------------|-------------------|
-------------------|-------------------|-------------------|-------------------|
-------------------|-------------------|-------------------|-------------------|
-------------------|-------------------|-------------------|-------------------|
-------------------|-------------------|-------------------|-------------------|
-------------------|-------------------|-------------------|-------------------|


                                          Outro A                   
  W                   W                   Q       E  E  E  E  Q     
-------------------|-------------------|---------------------------|
-------------------|-------------------|---------------------------|
-------------------|-------------------|---------------------------|
-------------------|-------------------|--4-------7--4--5--7--L----|
-------------------|-------------------|---------------------------|
-------------------|-------------------|---------------------------|


  W                    Q    E  E  E  E  Q       W                  
--------------------|------------------------|--------------------|
--------------------|------------------------|--------------------|
--------------------|------------------------|--------------------|
--L~----------------|------------------------|--------------------|
--------------------|-------5-----4--5--L----|--L~----------------|
--------------------|--7-------7-------------|--------------------|


                                                Outro B                 
  Q    E  E  E  E  Q       W                    Q       Q    Q    Q     
------------------------|--------------------|-------------------------|
------------------------|--------------------|-------------------------|
------------------------|--------------------|-------------------------|
--4----7--4--5--7--L----|--L~----------------|-------------------------|
------------------------|--------------------|--7------------7---------|
------------------------|--------------------|--0------------0---------|


  Q    Q    Q    Q       W                   W                 
----------------------|-------------------|-------------------|
----------------------|-------------------|-------------------|
----------------------|-------------------|-------------------|
----------------------|-------------------|-------------------|
--7---------7---------|--7----------------|--L----------------|
--0---------0---------|--0----------------|--L----------------|


  W                   W                   W                   W                 
-------------------|-------------------|-------------------|-------------------|
-------------------|-------------------|-------------------|-------------------|
-------------------|-------------------|-------------------|-------------------|
-------------------|-------------------|-------------------|-------------------|
--L----------------|--L----------------|--L----------------|--L----------------|
--L----------------|--L----------------|--L----------------|--L----------------|


  W                   W                   H        H          
-------------------|-------------------|--------------------||
-------------------|-------------------|--------------------||
-------------------|-------------------|--------------------||
-------------------|-------------------|--------------------||
--L----------------|--L----------------|--7-----------------||
--L----------------|--L----------------|--0-----------------||



Voice Melody: (Min 0:57)

Brian Ross

                      Verso A                                                
                It's a      ho  lo  caust co  ming  from 
  H.            E    E      E   E   Q     E   Q     E    
---------------17---17--|--17--17--17----17--17----17---|
------------------------|-------------------------------|
---------------14---14--|--14--14--14----14--14----14---|
------------------------|-------------------------------|
------------------------|-------------------------------|
------------------------|-------------------------------|


       the   East,      A      great an  gry bird,   sprea 
   E   Q     Q    Q     E      Q     E   E   Q.      E     
---L--21----24---------17--|--17----17--17--17------17----|
---------------------------|------------------------------|
---L--18----21---------14--|--14----14--14--14------14----|
---------------------------|------------------------------|
---------------------------|------------------------------|
---------------------------|------------------------------|


                                     Pre-Coro A                   
   ding it's  word,   And      we're go         nna   be    it's  
                               |--------3-------|                 
   E    Q     Q.      Q        Q     Q          Q     Q     Q     
--22---21----21------22----|--24----22---------21----22----24----|
---------------------------|-------------------------------------|
--19---18----18------19----|--21----19---------18----19----21----|
---------------------------|-------------------------------------|
---------------------------|-------------------------------------|
---------------------------|-------------------------------------|


                                              Verso A             
   fea   ast,                                               The   
   Q     H        Q       W                   H.            Q     
--24----22-------------|-------------------|---------------17----|
-----------------------|-------------------|---------------------|
--21----19-------------|-------------------|---------------14----|
-----------------------|-------------------|---------------------|
-----------------------|-------------------|---------------------|
-----------------------|-------------------|---------------------|


   sky   will be  red   and the    ground    will  shake,      The 
   Q     E    E   Q     E   E      S      S  Q     Q     Q     E   
--17----17---17--17----17--17--|--17------L-21----24----------17--|
-------------------------------|----------------------------------|
--14----14---14--14----14--14--|--14------L-18----21----------14--|
-------------------------------|----------------------------------|
-------------------------------|----------------------------------|
-------------------------------|----------------------------------|


   day   of    Judge ment    has    come,          Ar  ma  
   Q     Q     Q     S    S  E      Q    H         E   E   
--17----17----17----17----L-21--|--22-------------21--22--|
--------------------------------|-------------------------|
--14----14----14----14----L-18--|--19-------------18--19--|
--------------------------------|-------------------------|
--------------------------------|-------------------------|
--------------------------------|-------------------------|


   Pre-Coro A                                                
   ge         ddon       has   a        rri     ved.         
   E.         S    Q     Q     Q        Q.      Q.     Q     
--24---------22----L----24----22----|--22------21-----------|
------------------------------------|-----------------------|
--21---------19----L----21----19----|--19------18-----------|
------------------------------------|-----------------------|
------------------------------------|-----------------------|
------------------------------------|-----------------------|


                                          Coro A                          
                                                    Who    Will Ba  lance 
  W                   W                   H         S   S  E    E   E     
-------------------|-------------------|-----------24---L-24---24--24----|
-------------------|-------------------|---------------------------------|
-------------------|-------------------|-----------21---L-21---21--21----|
-------------------|-------------------|---------------------------------|
-------------------|-------------------|---------------------------------|
-------------------|-------------------|---------------------------------|


       My    Life  A   gainst    Yours?    Who    Will  Hold 
   E   Q     Q     E   Q         H         S   S  Q     E    
---L--24----24----22--20-----|--22--------22---L-22----22---|
-----------------------------|------------------------------|
---L--21----21----19--17-----|--19--------19---L-19----19---|
-----------------------------|------------------------------|
-----------------------------|------------------------------|
-----------------------------|------------------------------|


       My    Soul  in  His      Hand?     Who   Will     De   
                                          3     3     3  3    
   E   Q     Q     E   Q        H         Q     Q     S  E.   
---L--22----22----20--19----|--20--------20----20-----L-20---|
----------------------------|--------------------------------|
---L--19----19----17--16----|--17--------17----17-----L-17---|
----------------------------|--------------------------------|
----------------------------|--------------------------------|
----------------------------|--------------------------------|


   li   ver  Me    To  The De          vil?       Who    Can  
   E.   E.   Q     E   E   E      E.   Q    Q     S   S  E.   
--20---20---20----19--17--19--|---L---19---------15---L-19---|
------------------------------|------------------------------|
--17---17---17----16--14--16--|---L---16---------12---L-16---|
------------------------------|------------------------------|
------------------------------|------------------------------|
------------------------------|------------------------------|


                                Main Riff              
   Rid   The   Earth of         This                   
   Q     Q     E     Q.         Q        H.            
--20----20----19----17------|--20---------------------|
----------------------------|-------------------------|
--17----17----16----14------|--17---------------------|
----------------------------|-------------------------|
----------------------------|-------------------------|
----------------------------|-------------------------|


   E         vil?                                                     
             \0                                                       
   Q     E   E    H            W                    W                 
--24-----L--24----L--------|---L----------------|---L----------------|
---------------------------|--------------------|--------------------|
--21-----L--21----L--------|---L----------------|---L----------------|
---------------------------|--------------------|--------------------|
---------------------------|--------------------|--------------------|
---------------------------|--------------------|--------------------|


   Q    H.              W                   W                 
---L-----------------|-------------------|-------------------|
---------------------|-------------------|-------------------|
---L-----------------|-------------------|-------------------|
---------------------|-------------------|-------------------|
---------------------|-------------------|-------------------|
---------------------|-------------------|-------------------|


  W                   W                   W                   W                 
-------------------|-------------------|-------------------|-------------------|
-------------------|-------------------|-------------------|-------------------|
-------------------|-------------------|-------------------|-------------------|
-------------------|-------------------|-------------------|-------------------|
-------------------|-------------------|-------------------|-------------------|
-------------------|-------------------|-------------------|-------------------|


  W                   W                   W                   W                 
-------------------|-------------------|-------------------|-------------------|
-------------------|-------------------|-------------------|-------------------|
-------------------|-------------------|-------------------|-------------------|
-------------------|-------------------|-------------------|-------------------|
-------------------|-------------------|-------------------|-------------------|
-------------------|-------------------|-------------------|-------------------|


  Verso A (Min 1:47)
                                                   
                   The    World is...in the bloo dy    hands 
  H.           E   E      Q     E       E   E    Q     E     
------------------17--|--17----17------17--17---21----21----|
----------------------|-------------------------------------|
------------------14--|--14----14------14--14---18----18----|
----------------------|-------------------------------------|
----------------------|-------------------------------------|
----------------------|-------------------------------------|


       of    Fate,           War heads burn,      they 
   E   Q     Q    Q.         E   Q     Q    Q     E    
---L--22----24-----------|--17--21----21---------22---|
-------------------------|----------------------------|
---L--19----21-----------|--14--18----18---------19---|
-------------------------|----------------------------|
-------------------------|----------------------------|
-------------------------|----------------------------|


                               Pre-Coro A                      
   can't re   turn,   The      ho         ur    is    too      
   E.    E.   Q.      Q        E.         Q     Q     Q     S  
--24----22---21------24----|--24---------22----21----24-----L-|
---------------------------|----------------------------------|
--21----19---18------21----|--21---------19----18----21-----L-|
---------------------------|----------------------------------|
---------------------------|----------------------------------|
---------------------------|----------------------------------|


                                                  Verso A              
       late,                                                       The 
   E   E     Q    H           W                   H.           E   E   
---L--22-----L-------------|-------------------|------------------17--|
---------------------------|-------------------|----------------------|
---L--19-----L-------------|-------------------|------------------14--|
---------------------------|-------------------|----------------------|
---------------------------|-------------------|----------------------|
---------------------------|-------------------|----------------------|


   Sands of    Time  are ru         nning dry,       The 
   Q     Q     Q     E   E      E   Q     Q    Q     E   
--17----21----24----17--21--|---L--22----24---------17--|
----------------------------|---------------------------|
--14----18----21----14--18--|---L--19----21---------14--|
----------------------------|---------------------------|
----------------------------|---------------------------|
----------------------------|---------------------------|


   bird  is    in  full  flight,           Ar  ma  ge   ddon  has 
   Q     Q     E   Q     E          E  E   E   E   E.   Q     S   
--17----21----21--22----24------|---L-----24--24--22---21----24--|
--------------------------------|--------------------------------|
--14----18----18--19----21------|---L-----21--21--19---18----21--|
--------------------------------|--------------------------------|
--------------------------------|--------------------------------|
--------------------------------|--------------------------------|


   Pre-Coro A                                                 
              A           rri     ived.                       
   |--------3-------|                                         
   Q          Q     Q     Q.      E        Q    H.            
---L---------22-----L----22------21----|---L-----------------|
---------------------------------------|---------------------|
---L---------19-----L----19------18----|---L-----------------|
---------------------------------------|---------------------|
---------------------------------------|---------------------|
---------------------------------------|---------------------|


                                          Coro A                          
                                                    Who    Will Ba  lance 
  W                   W                   H         S   S  E    E   E     
-------------------|-------------------|-----------24---L-24---24--24----|
-------------------|-------------------|---------------------------------|
-------------------|-------------------|-----------21---L-21---21--21----|
-------------------|-------------------|---------------------------------|
-------------------|-------------------|---------------------------------|
-------------------|-------------------|---------------------------------|


       My    Life  A   gainst    Yours?    Who    Will  Hold 
   E   Q     Q     E   Q         H         S   S  Q     E    
---L--24----24----22--20-----|--22--------22---L-22----22---|
-----------------------------|------------------------------|
---L--21----21----19--17-----|--19--------19---L-19----19---|
-----------------------------|------------------------------|
-----------------------------|------------------------------|
-----------------------------|------------------------------|


       My    Soul  in  His      Hand?     Who   Will     De   
                                          3     3     3  3    
   E   Q     Q     E   Q        H         Q     Q     S  E.   
---L--22----22----20--19----|--20--------20----20-----L-20---|
----------------------------|--------------------------------|
---L--19----19----17--16----|--17--------17----17-----L-17---|
----------------------------|--------------------------------|
----------------------------|--------------------------------|
----------------------------|--------------------------------|


   li   ver  Me    To  The De          vil?       Who    Can  
   E.   E.   Q     E   E   E      E.   Q    Q     S   S  E.   
--20---20---20----19--17--19--|---L---19---------15---L-17---|
------------------------------|------------------------------|
--17---17---17----16--14--16--|---L---16---------12---L-14---|
------------------------------|------------------------------|
------------------------------|------------------------------|
------------------------------|------------------------------|


                                Main Riff              
   Rid   The   Earth of         This                   
   Q     Q     E     Q.         Q        H.            
--19----20----19----17------|--20---------------------|
----------------------------|-------------------------|
--16----17----16----14------|--17---------------------|
----------------------------|-------------------------|
----------------------------|-------------------------|
----------------------------|-------------------------|


   E         vil?                                                     
             \0                                                       
   Q     E   E    H          
--24-----L--24----L--------|
---------------------------|
--21-----L--21----L--------|
---------------------------|
---------------------------|
---------------------------|


 Verso B  (Min 3:06)                                    
  Mar     ching,          Mar     ching,       
   Q.      Q.     Q        Q.      Q.     Q     
--22------19-----------|--22------19-----------|
-----------------------|-----------------------|
--19------16-----------|--19------16-----------|
-----------------------|-----------------------|
-----------------------|-----------------------|
-------------------|-----------------------|-----------------------|


   Off   To  War   We    Go,                          Lea     ding,        
   Q     E   Q     Q     E      H        H            Q.      Q.     Q     
--19----19--19----22----17--|---L-----------------|--22------19-----------|
----------------------------|---------------------|-----------------------|
--16----16--16----19----14--|---L-----------------|--19------16-----------|
----------------------------|---------------------|-----------------------|
----------------------------|---------------------|-----------------------|
----------------------------|---------------------|-----------------------|


   Lea     ding, Our        Bloo  dy  Seeds       To  Sow, 
   Q.      Q     Q.         Q     E   E     Q     E   E    
--22------19----22------|--26----24--22-----L----19--17---|
------------------------|---------------------------------|
--19------16----19------|--23----21--19-----L----16--14---|
------------------------|---------------------------------|
------------------------|---------------------------------|
------------------------|---------------------------------|


                         On      ward,           On      ward,        
   Q    H.               Q.      Q.     Q        Q.      Q.     Q     
---L-----------------|--22------19-----------|--22------19-----------|
---------------------|-----------------------|-----------------------|
---L-----------------|--19------16-----------|--19------16-----------|
---------------------|-----------------------|-----------------------|
---------------------|-----------------------|-----------------------|
---------------------|-----------------------|-----------------------|


   Life  is    Bloo dy    Fine,                          Mar     ching,       
   Q     Q     E    Q     E        H        H            Q.      Q.     Q     
--19----19----22---19----17----|---L-----------------|--22------19-----------|
-------------------------------|---------------------|-----------------------|
--16----16----19---16----14----|---L-----------------|--19------16-----------|
-------------------------------|---------------------|-----------------------|
-------------------------------|---------------------|-----------------------|
-------------------------------|---------------------|-----------------------|


   Mar     ching, We         Ha    ven't    Got       Much  
   Q.      Q      Q.         Q     S     S  E   Q     Q     
--22------19-----22------|--26----24-----L-22---L----24----|
-------------------------|---------------------------------|
--19------16-----19------|--23----21-----L-19---L----21----|
-------------------------|---------------------------------|
-------------------------|---------------------------------|
-------------------------|---------------------------------|


                       Pre-Coro B                   
   Time,                           A   to  mic      
   W                   Q.          E   E   E  Q     
--22----------------|-------------19--22--24-------|
--------------------|------------------------------|
--19----------------|-------------16--19--21-------|
--------------------|------------------------------|
--------------------|------------------------------|
--------------------|------------------------------|


   Rain  Fa  alls  From    The      Sky,      To    Wash  Blood 
   Q     E   Q     S    S  Q        H         S  S  Q     E     
--22----19--22----22----L-24----|--21--------21--L-21----21----|
--------------------------------|------------------------------|
--19----16--19----19----L-21----|--18--------18--L-18----18----|
--------------------------------|------------------------------|
--------------------------------|------------------------------|
--------------------------------|------------------------------|


                            Coro B                                           
             From  The      Land,     Frigh tened    Chil  dren  Are   Pra   
   H         Q     Q        H         Q     Q        Q     Q     Q     Q     
---L--------19----17----|--19--------19----19----|--21----21----21----22----|
------------------------|------------------------|--------------------------|
---L--------16----14----|--16--------16----16----|--18----18----18----19----|
------------------------|------------------------|--------------------------|
------------------------|------------------------|--------------------------|
------------------------|------------------------|--------------------------|


   ying,    The Sky   is       Red   With    The    Fires of  Hell, 
   Q    E   E   Q     Q        Q     S    S  S   S  Q     E   E     
--19-------21--19----21----|--24----22----L-19---L-22----19--22----|
---------------------------|---------------------------------------|
--16-------18--16----18----|--21----19----L-16---L-19----16--19----|
---------------------------|---------------------------------------|
---------------------------|---------------------------------------|
---------------------------|---------------------------------------|


              Des   ti          ny        is    Still 
   Q    Q     Q     Q           H         Q     Q     
---L---------19----19----|--21g22--------21----21----|
-------------------------|---------------------------|
---L---------16----16----|--18g19--------18----18----|
-------------------------|---------------------------|
-------------------------|---------------------------|
-------------------------|---------------------------|


   born,      Des   ti  ny                is    Still    bo                
   Q    Q     Q     E   E      Q    Q     Q     Q        W                 
--19---------26----26--24--|---L---------22----24----|--26----------------|
---------------------------|-------------------------|--------------------|
--16---------23----23--21--|---L---------19----21----|--23----------------|
-------------24----24--23--|---L---------21----23----|--24----------------|
---------------------------|-------------------------|--------------------|
---------------------------|-------------------------|--------------------|


   oo        oo  uu           oo    uu   orn.                       Ye    ah!   
   H         E   E   Q        Q     E.   E.   Q.         E  Q.      Q     Q     
--26--------24--22---L----|--22----24---19----L------|---L---------24----22----|
--------------------------|--------------------------|-------------------------|
--23--------21--19---L----|--19----21---16----L------|---L---------21----19----|
--24--------23--21---L----|--21----23---16----L------|---L---------------------|
--------------------------|--------------------------|-------------------------|
--------------------------|--------------------------|-------------------------|



  Verso C (a) (Min 4:48)
                                          
               Fright ened     Chil  dren,      They're 
  H            Q      Q        Q     Q    Q     Q       
--------------19-----19----|--22----19---------19------|
---------------------------|---------------------------|
--------------16-----16----|--19----16---------16------|
---------------------------|---------------------------|
---------------------------|---------------------------|
---------------------------|---------------------------|


   Scared    To    Hell,                       
   H         Q     Q        H        H         
--22--------21----22----|---L-----------------|
------------------------|---------------------|
--19--------18----19----|---L-----------------|
------------------------|---------------------|
------------------------|---------------------|
------------------------|---------------------|


        They've     Heard The To           lling    of   The  
  Q     E       E   Q     E   E      Q     Q    E   E.   E.   
-------26-------L--26----26--26--|---L----24-------22---24---|
---------------------------------|---------------------------|
-------23-------L--23----23--23--|---L----21-------19---21---|
---------------------------------|---------------------------|
---------------------------------|---------------------------|
---------------------------------|---------------------------|


   Great     Black Bell,              They're    So        
   H         Q     Q        H         S       S  E   Q     
--26--------29----26----|---L--------22-------L-21---L----|
------------------------|------------19-------L-17---L----|
--23--------26----23----|---L--------19-------L-18---L----|
------------------------|---------------------------------|
------------------------|---------------------------------|
------------------------|---------------------------------|


   Scared,        They're    Scared    To       Hell.                      
   H        Q     Q          H         Q        Q        W                 
--19-------------19------|--21--------21----21g22----|---L----------------|
-------------------------|---------------------------|--------------------|
--16-------------16------|--18--------18----18g19----|---L----------------|
-------------------------|---------------------------|--------------------|
-------------------------|---------------------------|--------------------|
-------------------------|---------------------------|--------------------|


   Oh   !uh! oh!        uh!       oh!                                     
   E    E    H          Q         W                 
--22s--21s--22s--------21s----|--19----------------|
------------------------------|--------------------|
--19s--18s--19s--------18s----|--16----------------|
------------------------------|--------------------|
------------------------------|--------------------|
------------------------------|--------------------|


  Verso C (b) (Min 5:15)
                                          
               Fright ened     Chil  dren,      They're 
  H            Q      Q        Q     Q    Q     Q       
--------------19-----19----|--22----19---------19------|
---------------------------|---------------------------|
--------------16-----16----|--19----16---------16------|
---------------------------|---------------------------|
---------------------------|---------------------------|
---------------------------|---------------------------|


   Scared    To    Hell,                       
   H         Q     Q        H        H         
--22--------21----22----|---L-----------------|
------------------------|---------------------|
--19--------18----19----|---L-----------------|
------------------------|---------------------|
------------------------|---------------------|
------------------------|---------------------|


        They've     Heard That Sa           tan   Has   a     
  Q     E       E   Q     E    E      Q     Q     Q     Q     
-------26-------L--26----26---26--|---L----24----22----24----|
----------------------------------|--------------------------|
-------23-------L--23----23---23--|---L----21----19----21----|
----------------------------------|--------------------------|
----------------------------------|--------------------------|
----------------------------------|--------------------------|


   Tale      To    Tell,              They're    So        
   H         Q     Q        H         S       S  E   Q     
--26--------29----26----|---L--------22-------L-21---L----|
------------------------|------------19-------L-17---L----|
--23--------26----23----|---L--------19-------L-18---L----|
------------------------|---------------------------------|
------------------------|---------------------------------|
------------------------|---------------------------------|


   Scared,        They're    Scared    To       Hell.                      
   H        Q     Q          H         Q        Q        W                 
--19-------------19------|--21--------21----21g22----|---L----------------|
-------------------------|---------------------------|--------------------|
--16-------------16------|--18--------18----18g19----|---L----------------|
-------------------------|---------------------------|--------------------|
-------------------------|---------------------------|--------------------|
-------------------------|---------------------------|--------------------|


   Oh   !uh! oh!        uh!       oh!                                     
   E    E    H          Q         W                    H        H         
--22s--21s--22s--------21s----|--19----------------|---L-----------------|
------------------------------|--------------------|---------------------|
--19s--18s--19s--------18s----|--16----------------|---L-----------------|
------------------------------|--------------------|---------------------|
------------------------------|--------------------|---------------------|
------------------------------|--------------------|---------------------|


                                               Main Riff         
      Fi                   re!                                   
      W                    W                   W                 
--24g26----------------|--26----------------|-------------------|
-----------------------|--------------------|-------------------|
--21g23----------------|--23----------------|-------------------|
-----------------------|--------------------|-------------------|
-----------------------|--------------------|-------------------|
-----------------------|--------------------|-------------------|


  W                   W                   W                   W                 
-------------------|-------------------|-------------------|-------------------|
-------------------|-------------------|-------------------|-------------------|
-------------------|-------------------|-------------------|-------------------|
-------------------|-------------------|-------------------|-------------------|
-------------------|-------------------|-------------------|-------------------|
-------------------|-------------------|-------------------|-------------------|


                      Ah!                  ah  ah     ah!!!              
  H.           E      E      H.            E   E      H.           Q     
------------------24g29--|---L------------27--24--|--24-----------------|
-------------------------|------------------------|---------------------|
------------------24g26--|---L------------24--21--|--21-----------------|
-------------------------|------------------------|---------------------|
-------------------------|------------------------|---------------------|
-------------------------|------------------------|---------------------|




Duration Legend
---------------
W - whole
H - half
Q - quarter
E - 8th
S - 16th
T - 32nd
X - 64th
. - note dotted
|-n-|  - n-tuplets


Tablature Legend
----------------
L - tied note
x - dead note
g - grace note
(n) - ghost note
> - accentuded note
NH - natural harmonic
AH - artificial harmonic
TH - tapped harmonic
SH - semi harmonic
PH - pitch harmonic
h - hammer on
p - pull off
b - bend
br - bendRelease
pb - preBend
pbr - preBendRelease
brb - bendReleaseBend
\n/ - tremolo bar dip
\n - tremolo bar dive
-/n - tremolo bar Release up
/n\ - tremolo bar inverted dip
/n - tremolo bar return
-\n - tremolo bar Release down
S - shift slide
s - legato slide
/ -  slide into from below or out of upwards
\ -  slide into from above or out of downwards
~ - vibrato
W - wide vibrato
tr - trill
TP - tremolo picking
T - tapping
S - slap
P - pop
< - fade in
^ - brush up
v - brush down
Добавлено: 28.12.2015
Другие материалы по этой песне:

Страница создана 10.03.2012
http://primanota.ru/blitzkrieg/armageddon-chords.htm
Привет, Гость.
Предлагаем пройти революционный курс по гитаре.
Подарок от PrimaNota.Ru, забирай!