PrimaNota.ru - самый крупный в мире бесплатный архив песенных текстов, аккордов, табулатур и нот


Blitzkid - Wretched - таба, видео

Регистрация Запомнить меня
Войти через:  Facebook Google Twitter Vk Yandex Mail.ru

Blitzkid - Wretched - таба, видео

Печатать
Просмотров: 187
Blitzkid - Wretched

By: skyturnedred@gmail.com

Tuning one-step down: DGCFAD
But easy to play in Eb tuning also.


INTRO Guitar1:
|-------------------------------------|
|-------------------------------------|
|-------------------88888888-66666666-|
|-33333333-66666666-88888888-66666666-|
|-33333333-66666666-66666666-44444444-|
|-11111111-44444444-------------------|

INTRO Guitar2:
|-------------------------|
|-------------------------|
|-------------------------| Can't figure it out :(
|-------------------------|
|-------------------------|
|-------------------------|


VERSE:
|-------------------------------------------------------------|
|-------------------------------------------------------------|
|-------------------------------8------8--8--8-6------6--6--6-|
|-3------3--3--3-6------6--6--6-8------8--8--8-6------6--6--6-|
|-3------3--3--3-6------6--6--6-66666666666666-44444444444444-|
|-11111111111111-44444444444444-------------------------------|
   ...... .. ..   ...... .. ..   ...... .. ..   ...... .. ..

|-------------------------------------------------------------|
|-------------------------------------------------------------|
|-------------------------------8------8--8--8-6-66666666666--|
|-3------3--3--3-6------6--6--6-8------8--8--8-6-66666666666--|
|-3------3--3--3-6------6--6--6-66666666666666-4-44444444444--|
|-11111111111111-44444444444444-------------------------------|
   ...... .. ..   ...... .. ..   ...... .. ..

Repeat INTRO
Repeat VERSE


PRE-CHORUS:
|-----------------------------------------------------|
|-----------------------------------------------------|
|-888888888888-666666666666-888888888888-6-6-6-6-6/88-|
|-888888888888-666666666666-888888888888-6-6-6-6-6/88-|
|-666666666666-444444444444-666666666666-4-4-4-4-4/66-|
|-----------------------------------------------------|


CHORUS:
|-----------------------------------------------------------------|
|-----------------------------------------------------------------|
|--------------888888888888-101010101010101010101010-6-6-6-6-6/88-|
|-666666666666-888888888888-101010101010101010101010-6-6-6-6-6/88-|
|-666666666666-666666666666--8-8-8-8-8-8-8-8-8-8-8-8-4-4-4-4-4/66-|
|-444444444444----------------------------------------------------|


SOLO with CHORUS on background

Repeat VERSE without Guitars


PRE-CHORUS2:                        !--Higher tempo at end!--!
|-----------------------------------------------------|
|-----------------------------------------------------|
|-888888888888-666666666666-888888888888-666666666----| (small pause)
|-888888888888-666666666666-888888888888-666666666----|
|-666666666666-444444444444-666666666666-444444444----|
|-----------------------------------------------------|


Repeat CHORUS
Repeat INTRO but on last repeat replace C# with:

ENDING:
|------------------------------|
|------------------------------|
|-6---5---6---5---6--5---------|
|-6---5---6---5---6--5--6------|
|-444-333-444-333-44-33-6------|
|-----------------------4------|
   ..  ..  ..  ..  .  .
Добавлено: 26.03.2012
Другие материалы по этой песне:
  • Аккорды и текст

Страница создана 26.03.2012
http://primanota.ru/blitzkid/wretched-chords.htm
Привет, Гость.
Предлагаем пройти революционный курс по гитаре.
Подарок от PrimaNota.Ru, забирай!