PrimaNota.ru - самый крупный в мире бесплатный архив песенных текстов, аккордов, табулатур и нот


Blitzkid - The Awakening - таба, видео

Регистрация Запомнить меня
Войти через:  Facebook Google Twitter Vk Yandex Mail.ru

Blitzkid - The Awakening - таба, видео

Печатать
Просмотров: 133
Уроки эстрадного вокала в Санкт-Петербурге
The Awakening by Blitzkid
Album: Apparitional
Tuning Standard EADGBe
Tabbed by "The Muddman" Jovan Sanchez

Yet another to-be classic by Blitzkid, such an incredible song. My first tabbed 
"solo" ever, hope you guys this one.

INTRO

|-----------------------------------|
|-----------------------------------|
|-----------------------------------|
|-----------------------------------|x3
|--2-2--7-7--9-999999---------------|
|--0-0--5-5--7-777777---------------|
     .    .    ......    

|-----------------------------------|
|-----------------------------------|
|-----------------------------------|
|-----------------------------------|
|--7-7777--11--9--11--9-------------|
|--5-5555--9---7--9---7-------------|
     ....                     


VERSE


|-----------------------------------|
|-----------------------------------|
|-----------------------------------|
|-----------------------------------|  
|--2-22222-2-22222-9-99999-9-99999--|  
|--0-00000-0-00000-7-77777-7-77777--|  
                                 
      
"My bride, open your eyes"   

                                  
  
|-----------------------------------|  
|-----------------------------------|  
|-----------------------------------|  
|-----------------------------------|
|--7-77777-7-77777--9-99999-9-99999-|
|--5-55555-5-55555--7-77777-7-77777-|


"And flare forth a breath, knowing you are"


|-----------------------------------|
|-----------------------------------|
|-----------------------------------|
|-----------------------------------|  
|--2-22222-2-22222-9-99999-9-99999--|  
|--0-00000-0-00000-7-77777-7-77777--|  
                                     
  
"Mine, eternally"  
                                  
   
|-----------------------------------|  
|-----------------------------------|  
|-----------------------------------|  
|-----------------------------------|
|--7-77777-7-77777--9-99999-9-99999-|
|--5-55555-5-55555--7-77777-7-77777-|


"The things we shall see together, oh now"


CHORUS


|-----------------------------------------------|
|-----------------------------------------------|
|-----------------------------------------------|
|-----------------------------------------------|
|--11-111111111--11-111111111--9-99999-9-99999--|  
|--9--9-9-9-9-9--9--9-9-9-9-9--7-77777-7-77777--|  
                                       
            
"you can't be contained by the flesh or the"       
                         

|------------------------------------|             
|------------------------------------|             
|------------------------------------|             
|------------------------------------|
|--2-22222-2-22222--9-99999-9-99999--|
|--0-00000-0-00000--7-77777-7-77777--|


"Frame, and you'll never be abcessed or"


|-----------------------------------------------|
|-----------------------------------------------|
|-----------------------------------------------|
|-----------------------------------------------|
|--11-111111111--11-111111111--9-99999-9-99999--|  
|--9--9-9-9-9-9--9--9-9-9-9-9--7-77777-7-77777--|  
                        
                           
 "Diseased, and you'll never know, the pains of the"                                        
                 

|------------------------------------|             
|------------------------------------|             
|------------------------------------|            
|------------------------------------|
|--2-22222-2-22222--9-99999--7-77777-|
|--0-00000-0-00000--7-77777--5-55555-|


"Old, it's all in the past now please don't"


VERSE


|-----------------------------------|
|-----------------------------------|
|-----------------------------------|
|-----------------------------------|  
|--2-22222-2-22222-9-99999-9-99999--|  
|--0-00000-0-00000-7-77777-7-77777--|  
                              
         
"Cry, i know you are scared"
                                  
 
|-----------------------------------|  
|-----------------------------------|  
|-----------------------------------|  
|-----------------------------------|
|--7-77777-7-77777--9-99999-9-99999-|
|--5-55555-5-55555--7-77777-7-77777-|


"And things seem so different in the absense of the"


|-----------------------------------|
|-----------------------------------|
|-----------------------------------|
|-----------------------------------|  
|--2-22222-2-22222-9-99999-9-99999--|  
|--0-00000-0-00000-7-77777-7-77777--|  
                  

"Light, but soon you'll adjust"                    
                                 
      
|-----------------------------------|  
|-----------------------------------|  
|-----------------------------------|  
|-----------------------------------|
|--7-77777-7-77777--9-99999-9-99999-|
|--5-55555-5-55555--7-77777-7-77777-|


"Eternally porcelain beings, oh now"


2nd CHORUS


|-----------------------------------------------|
|-----------------------------------------------|
|-----------------------------------------------|
|-----------------------------------------------|
|--11-111111111--11-111111111--9-99999-9-99999--|  
|--9--9-9-9-9-9--9--9-9-9-9-9--7-77777-7-77777--|  
                                     
              
"You, can't be contained by the flesh or the  
                            

|------------------------------------|             
|------------------------------------|             
|------------------------------------|             
|------------------------------------|
|--2-22222-2-22222--9-99999-9-99999--|
|--0-00000-0-00000--7-77777-7-77777--|


"Frame, and you'll neveer be abcessed or"


|-----------------------------------------------|
|-----------------------------------------------|
|-----------------------------------------------|
|-----------------------------------------------|
|--11-111111111--11-111111111--9-99999-9-99999--|  
|--9--9-9-9-9-9--9--9-9-9-9-9--7-77777-7-77777--|  
                                      
             
"Diseased, and you'll never know the pains of the"                                         
                 

|------------------------------------|             
|------------------------------------|             
|------------------------------------|            
|------------------------------------|
|--2-22222-2-22222--9-99999--7-77777-|
|--0-00000-0-00000--7-77777--5-55555-|


"Old, it's all in the past now"



BRIDGE


|------------------------------------------|
|------------------------------------------|
|------------------------------------------|
|------------------------------------------|x4
|--2-22222--7-77777--9-99999--9-99999------|
|--0-00000--5-55555--7-77777--7-77777------|


"You're awakening"x4


|--------------------------------------------|
|--------------------------------------------|
|--------------------------------------------|
|--------------------------------------------|
|--7-77777-7-77777--9-99999-9-99999----------|
|--5-55555-5-55555--7-77777-7-77777----------|


"you're awakening"


|-----------------------------------|
|-----------------------------------|
|-----------------------------------|
|-----------------------------------|
|--11-9--7--9--7----9---------------|
|--9--7--5--7--5----7---------------|


SOLO

|-----------------------------------|
|-------------12--------------------|
|--/9--9--11b----11--9--------------|
|-----------------------------------|
|-----------------------------------|
|-----------------------------------|

|--------------------------------------|
|--------------------------------------|
|--8-8-9-9/-12-10----8-10-12--12h13p12-|
|--------------------------------------|
|--------------------------------------|
|--------------------------------------|


|-----------------------------------|
|-----------------12----------------|
|--10-8---8-9-11b----11----------12-|
|-----------------------------------|
|-----------------------------------|
|-----------------------------------|



|---------------------------------------|
|---------------------------------------|
|--t16p--p13h---t16p--p13h---t16p--p13--|
|---------------------------------------|
|---------------------------------------|
|---------------------------------------|
 **While holding on to 12th fret with index finger** 

|---------------------------------|
|---------------------------------|
|--11b--9-9/-11---8-11-9-6--------|
|---------------------------------|
|---------------------------------|
|---------------------------------|


  2nd guitar
|-----------------------------------|
|-----------------------------------|
|-----------------------------------|--|
|-----------------------------------|  |
|--2-22222-2-22222-9-99999-9-99999--|  |
|--0-00000-0-00000-7-77777-7-77777--|  |
                                       |
                                       |-x2
|-----------------------------------|  |
|-----------------------------------|  |
|-----------------------------------|  |
|-----------------------------------|--|
|--7-77777-7-77777--9-99999-9-99999-|
|--5-55555-5-55555--7-77777-7-77777-|


3rd CHORUS


|-----------------------------------------------|
|-----------------------------------------------|
|-----------------------------------------------|
|-----------------------------------------------|
|--11-111111111--11-111111111--9-99999-9-99999--|  
|--9--9-9-9-9-9--9--9-9-9-9-9--7-77777-7-77777--|  

                                                   
"Oh now you, cannot be tamed by conventional"        

                         
|------------------------------------|             
|------------------------------------|             
|------------------------------------|             
|------------------------------------|
|--2-22222-2-22222--9-99999-9-99999--|
|--0-00000-0-00000--7-77777-7-77777--|


"Ways, and you'll neveer be abcesed or"


|-----------------------------------------------|
|-----------------------------------------------|
|-----------------------------------------------|
|-----------------------------------------------|
|--11-111111111--11-111111111--9-99999-9-99999--|  
|--9--9-9-9-9-9--9--9-9-9-9-9--7-77777-7-77777--|  

                                                   
"Diseased, and you''l never know the pains of the"                                           

                 
|------------------------------------|             
|------------------------------------|             
|------------------------------------|            
|------------------------------------|
|--2-22222-2-22222--9-99999--7-77777-|
|--0-00000-0-00000--7-77777--5-55555-|


"Old, it's all in the past now"


OUTRO


|------------------------------------------|
|------------------------------------------|
|------------------------------------------|
|------------------------------------------|x4
|--2-22222--7-77777--9-99999--9-99999------|
|--0-00000--5-55555--7-77777--7-77777------|


"You're awakening"x4


|-----------|
|-----------|
|-----------|
|-----------|
|--11--9----|
|--9---7----|



|-----------------------------------|
|-----------------------------------|
|-----------------------------------|
|-----------------------------------|x3
|--2-2--7-7--9-999999---------------|
|--0-0--5-5--7-777777---------------|
     .    .    ......    


|-----------------------------------|
|-----------------------------------|
|-----------------------------------|
|-----------------------------------|
|--7-7777--11--9--11--9-------------|
|--5-5555--9---7--9---7-------------|
     ....                     



|-----------------------------------|
|-----------------------------------|
|-----------------------------------|
|-----------------------------------|x3
|--2-2--7-7--9-999999---------------|
|--0-0--5-5--7-777777---------------|
     .    .    ......    


|--------------------------------|
|--------------------------------|
|--------------------------------|
|--------------------------------|
|--777-777-777-777--999-999-999--|
|--555-555-555-555--777-777-777--|
    .. ... ... ...  ... ... ...

"From this time you'll always be" 

|------------------|
|------------------|
|------------------|
|------------------|
|--7-9-7----2------|
|--5-7-5----0------|

"With Me..."



NOTE: sorry if the tapping part is labled incorrectly 
im still new to tapping. I learned it as part of learning this song.

t = tap 

p = pull off

h = hammer on

/ = slide

. = palm mute
Добавлено: 29.02.2012
Другие материалы по этой песне:
  • Аккорды и текст

Страница создана 29.02.2012
http://primanota.ru/blitzkid/the-awakening-chords.htm
Привет, Гость.
Предлагаем пройти революционный курс по гитаре.
Подарок от PrimaNota.Ru, забирай!