PrimaNota.ru - самый крупный в мире бесплатный архив песенных текстов, аккордов, табулатур и нот


Blitzkid - Terror In The Haunted House - бас-таба, видео

Регистрация Запомнить меня
Войти через:  Facebook Google Twitter Vk Yandex Mail.ru

Blitzkid - Terror In The Haunted House - бас-таба, видео

Печатать
Просмотров: 117
tabbed by derek tibbs

Intro:

G--------------------------|
D--------------------------|
A--8\-13~-13-11-9-8-9-11~--|
E--------------------------|

Main riff:

G-------------------------------------------------------|
D-------------------------------------------------------|
A--13-X-13-13-13-13-X-13-13-13-8-X-8-8-8-11-X-11-11-11--|
E-------------------------------------------------------|

Riff 3:

G---------------------------------------------------------------------|
D---------------------------------------------------------------------|
A--13-13-11-11-9-9-8-8-13-13-11-11-9-9-8-8-13-13-11-11-9-9-8-8-6-X-8--|
E---------------------------------------------------------------------|

Riff 4:

G---------------------------------------------------|
D--------------11-11-13-13-15-15-13-13-11-11--------|
A--13-13-15-15-------------------------------15-15--|
E---------------------------------------------------|

G---------------------------------------------|
D--------13-13-------------13-13-11-11--------|
A--11-11-------15-15-11-11-------------15-15--|
E---------------------------------------------|
Добавлено: 11.04.2012
Другие материалы по этой песне:
  • Аккорды и текст

Страница создана 11.04.2012
http://primanota.ru/blitzkid/terror-in-the-haunted-house-chords.htm
Привет, Гость.
Предлагаем пройти революционный курс по гитаре.
Подарок от PrimaNota.Ru, забирай!