PrimaNota.ru - самый крупный в мире бесплатный архив песенных текстов, аккордов, табулатур и нот


Blitzkid - She Dominates - таба, бас-таба, видео

Регистрация Запомнить меня
Войти через:  Facebook Google Twitter Vk Yandex Mail.ru

Blitzkid - She Dominates - таба, бас-таба, видео

Печатать
Просмотров: 253
-------------------------------------------------------------------------------
			     She Dominates - Blitzkid
-------------------------------------------------------------------------------
Tabbed by: Doc Turtle
Email: Smilealittleformeplease@hotmail.com

Tuning: Standard

               Intro
e|---------------------------------------------------------------------------|
B|---------------------------------------------------------------------------|
G|-----------7------2-----4/6------------------------------------------------|
D|---4-------7(x8)—-2(x4)-4/6---repeat 4 times-------------------------------|
A|---4(x16)--5------0-----2/4------------------------------------------------|
E|---2-----------------------------------------------------------------------|
               
e|---------------------------------------------------------------------------|
B|---------------------------------------------------------------------------|
G|-------------7-7------2-2----------------------------------7-----2---------|
D|---4-4-------7-7(x7)—-2-2(x7)—repeat 3 times-----4-4-------7(x8)—2(x8)-----|
A|---4-4(x15)—-5-5------0-0------------------------4-4(x15)--5-----0---------|
E|---2-2---------*--------*------------------------2-2-----------------------|
       *                                             *
e|---------------------------------------------------------------------------|
B|---------------------------------------------------------------------------|
G|-----------7------2-----4/6------------------------------------------------|
D|---4-------7(x8)—-2(x4)-4/6---repeat 2 times-------------------------------|
A|---4(x16)--5------0-----2/4------------------------------------------------|
E|---2-----------------------------------------------------------------------|

e|---------------------------------------------------------------------------|
B|---------------------------------------------------------------------------|
G|-------------7-7------2-2----------------------------------7-----2---------|
D|---4-4-------7-7(x7)—-2-2(x7)—repeat 3 times-----4-4-------7(x8)—2(x8)-----|
A|---4-4(x15)—-5-5------0-0------------------------4-4(x15)--5-----0---------|
E|---2-2---------*--------*------------------------2-2-----------------------|
       *                                             *

e|---------------------------------------------------------------------------|
B|---------------------------------------------------------------------------|
G|---7-------------7-----2-----4/6-------------------------------------------|
D|---7(x8)--4------7(x8)-2(x6)-4/6-------------------------------------------|
A|---5------4(x8)--5-----0-----2/4-------------------------------------------|
E|----------2----------------------------------------------------------------|
   {--------slower----------}
e|---------------------------------------------------------------------------|
B|---------------------------------------------------------------------------|
G|----------7------2------4/6-----------------------7-----2------------------|
D|---4------7(x8)—-2(x14)-4/6—repeat 2 times--4-----7(x8)-2(x8)-4-----2/4----|
A|---4(x8)--5------0------2/4-----------------4(x8)-5-----0-----4(x6)-2/4----|
E|---2----------------------------------------2-----------------2-----0/2----|

e|---------------------------------------------------------------------------|
B|---------------------------------------------------------------------------|
G|----------7------2-----4/6-------------------------------------------------|
D|---4------7(x8)—2(x14)-4/6-------------------------------------------------|
A|---4(x8)--5------0-----2/4-------------------------------------------------|
E|---2-----------------------------------------------------------------------|

UNTABBED SOLO-----??????????

e|---------------------------------------------------------------------------|
B|---------------------------------------------------------------------------|
G|-------------7-7------2-2----------------------------------7-----2---------|
D|---4-4-------7-7(x7)—-2-2(x7)—repeat 3 times-----4-4-------7(x8)—2(x8)-----|
A|---4-4(x15)—-5-5------0-0------------------------4-4(x15)--5-----0---------|
E|---2-2---------*--------*------------------------2-2-----------------------|
       *                                             *

e|---------------------------------------------------------------------------|
B|---------------------------------------------------------------------------|
G|-----------7------2-----4/6------------------------------------------------|
D|---4-------7(x8)—-2(x4)-4/6---repeat 2 times-------------------------------|
A|---4(x16)--5------0-----2/4------------------------------------------------|
E|---2-----------------------------------------------------------------------|

e|---------------------------------------------------------------------------|
B|---------------------------------------------------------------------------|
G|-------------7-7------2-2----------------------------------7-----2---------|
D|---4-4-------7-7(x7)—-2-2(x7)—repeat 3 times-----4-4-------7(x8)—2(x8)-----|
A|---4-4(x15)—-5-5------0-0------------------------4-4(x15)--5-----0---------|
E|---2-2---------*--------*------------------------2-2-----------------------|
       *                                             *

e|---------------------------------------------------------------------------|
B|---------------------------------------------------------------------------|
G|---7-------------7-----2-----4/6-------------------------------------------|
D|---7(x8)--4------7(x8)-2(x6)-4/6-------------------------------------------|
A|---5------4(x8)--5-----0-----2/4-------------------------------------------|
E|----------2----------------------------------------------------------------|
   {--------slower----------}
e|---------------------------------------------------------------------------|
B|---------------------------------------------------------------------------|
G|----------7------2------4/6-----------------------7-----2------------------|
D|---4------7(x8)—-2(x14)-4/6—repeat 2 times--4-----7(x8)-2(x8)-4-----2/4----|
A|---4(x8)--5------0------2/4-----------------4(x8)-5-----0-----4(x6)-2/4----|
E|---2----------------------------------------2-----------------2-----0/2----|

e|---------------------------------------------------------------------------|
B|---------------------------------------------------------------------------|
G|----------7------2------4/6------------------------------------------------|
D|---4------7(x8)—-2(x14)-4/6------------------------------------------------|
A|---4(x8)--5------0------2/4------------------------------------------------|
E|---2-----------------------------------------------------------------------|

e|---------------------------------------------------------------------------|
B|---------------------------------------------------------------------------|
G|----------7------2------4/6------------------------------------------------|
D|---4------7(x8)—-2(x14)-4/6—repeat 4 times---------------------------------|
A|---4(x8)--5------0------2/4------------------------------------------------|
E|---2-----------------------------------------------------------------------|


e|---------------------------------------------------------------------------|
B|---------------------------------------------------------------------------|
G|-----------7------2-----4/6------------------------------------------------|
D|---4-------7(x8)—-2(x4)-4/6---repeat 2 times-end on 4----------------------|
A|---4(x16)--5------0-----2/4-------------------------4----------------------|
E|---2------------------------------------------------2----------------------|


| /  slide up
| \  slide down
| h  hammer-on
| p  pull-off
| ~  vibrato
| +  harmonic
| x  Mute note
  *  Palm mute
===============================================================================
		Questions comments concerns? E-mail at smilealittleformeplease@hotmail.com Thanks!
Добавлено: 11.06.2012
Другие материалы по этой песне:

Страница создана 18.03.2012
http://primanota.ru/blitzkid/she-dominates-chords.htm
Привет, Гость.
Предлагаем пройти революционный курс по гитаре.
Подарок от PrimaNota.Ru, забирай!