PrimaNota.ru - самый крупный в мире бесплатный архив песенных текстов, аккордов, табулатур и нот


Blitzkid - Salems Ghost - бас-таба, видео

Регистрация Запомнить меня
Войти через:  Facebook Google Twitter Vk Yandex Mail.ru

Blitzkid - Salems Ghost - бас-таба, видео

Печатать
Просмотров: 181
Уроки эстрадного вокала в Санкт-Петербурге
Blitzkid: Salem’s Ghost

Tabbed by: Derek Tibbs

Riff 1:

G-------------------------------|
D-------------------------------|
A------2------------------------|
E--5-0---0-2222-2222-2222-2222—-|

Riff 2:(pre-chorus)


G-------------------------------|
D-------------------------------|
A------2------------------------|
E--5-0---0-9999-9999-9999-9999—-|

Riff 3: (chorus)

G----------------------------------|
D----------------------------------|
A--77-777--------------------------|
E---------77-777-55-555-55-7-55-7--|
Добавлено: 24.06.2012
Другие материалы по этой песне:
  • Аккорды и текст

Страница создана 24.06.2012
http://primanota.ru/blitzkid/salems-ghost-chords.htm
Привет, Гость.
Предлагаем пройти революционный курс по гитаре.
Подарок от PrimaNota.Ru, забирай!