PrimaNota.ru - самый крупный в мире бесплатный архив песенных текстов, аккордов, табулатур и нот


Blitzkid - My Dying Bride - таба, бас-таба, видео

Регистрация Запомнить меня
Войти через:  Facebook Google Twitter Vk Yandex Mail.ru

Blitzkid - My Dying Bride - таба, бас-таба, видео

Печатать
Просмотров: 391
-------------------------------------------------------------------------------
                                          My Dying Bride - Blitzkid

-------------------------------------------------------------------------------

Tuning: Drop D

               Key

************************************

| /   slide up
| \   slide down
| ~   Let ring
| .   Palm mute
| h   Hammer-on

************************************

Intro/Verse:

e|------------------------------------------------------------------------------|
B|------------------------------------------------------------------------------|
G|------------------------------------------------------------------------------|
D|---10~~---10-10-10-10-10-10-6-6-6-6-6-6-6-6-6-1-1-1-1-1-1-1-1-1-1-1-1-1-1-1-1-|
A|---10~~---10-10-10-10-10-10-6-6-6-6-6-6-6-6-6-1-1-1-1-1-1-1-1-1-1-1-1-1-1-1-1-|
E|---10~~---10-10-10-10-10-10-6-6-6-6-6-6-6-6-6-1-1-1-1-1-1-1-1-1-1-1-1-1-1-1-1-|
             .  .  .  .  .  . . . . . . . . . . . . . . . . . . . . . . . . . .


e|---------------------------|
B|---------------------------|
G|---------------------------|
D|---5~----8~----10~---------|
A|---5~----8~----10~---------|
E|---5~----8~----10~---------|


Chorus:

e|----------------------------------------------------------------------------|
B|----------------------------------------------------------------------------|
G|----------------------------------------------------------------------------|
D|---10-------10/13--13\12--8-------10---6--------1--------5~----8~-----------|
A|---10-------10/13--13\12--8-------10---6--------1--------5~----8~-----------|
E|---10-(12x)-10/13--13\12--8-(15x)-10---6-(16x)--1-(12x)--5~----8~-----------|


Solo:

e|----------------------------------------------------------------------------|
B|----------------------------------------------------------------------------|
G|----------------------------------------------------------------------------|
D|----------------------------------------------------------------------------|
A|---6-6-6--5-5-5--6-6-6--5-5-5--6-6--8-8--6-6-6--5-5-5------6-6-6--5-5-5-----|
E|-------------------------------------------------------8-8--------------8-8-|


e|----------------------------------------------------------------------------|
B|----------------------------------------------------------------------------|
G|----------------------------------------------------------------------------|
D|----------------------------------------------------------------------------|
A|---6-6-6--5-5-5--6-6-6--5-5-5--6-6--8-8--6-6-6--5-5-5--6-6-6--5-5-5/6/10----|
E|----------------------------------------------------------------------------|


e|----------------------------------------------------------------------------|
B|----------------------------------------------------------------------------|
G|----------------------------------------------------------------------------|
D|----------------------------------------------------------------------------|
A|---6-6-6--5-5-5--6-6-6--5-5-5--6h8-8-8--6-6-6--5-5-5------6-6-6--5-5-5------|
E|------------------------------------------------------8-8---------------8-8-|


e|----------------------------------------------------------------------------|
B|----------------------------------------------------------------------------|
G|----------------------------------------------------------------------------|
D|------------------------------5~---------8~---------1~----------------------|
A|--6-6-6-6-6-6-6-6-6-6-6-6-----5~---------8~---------1~----------------/18\--|
E|------------------------------5~---------8~---------1~----------------------|
                                                                         *

* Pre-dive with bar then play the note and slide down.


Note- Alternatively, you can tune to E flat (1/2 step down) and play these chords instead:

e|-------------------------------------|
B|-------------------------------------|
G|-------------------------------------|
D|---11------7------2------6~----9~----|
A|---11------7------2------6~----9~----|
E|----9------5------0------4~----7~----|

 and the solo

e|----------------------------------------------------------------------------|
B|----------------------------------------------------------------------------|
G|----------------------------------------------------------------------------|
D|----------------------------------------------------------------------------|
A|---7-7-7--6-6-6--7-7-7--6-6-6--7-7-9-9--7-7-7--6-6-6------7-7-7--6-6-6------|
E|------------------------------------------------------7-7---------------7-7-|  and so on


This is my first tab so it may contain errors. If you have questions, comments, or 
feel free to e-mail me at jhawkins_93@yahoo.com.
Добавлено: 05.05.2012
Другие материалы по этой песне:
  • Аккорды и текст

Страница создана 05.05.2012
http://primanota.ru/blitzkid/my-dying-bride-chords.htm
Привет, Гость.
Предлагаем пройти революционный курс по гитаре.
Подарок от PrimaNota.Ru, забирай!