PrimaNota.ru - самый крупный в мире бесплатный архив песенных текстов, аккордов, табулатур и нот


Blitzkid - My Bloody Valentine - таба, видео

Регистрация Запомнить меня
Войти через:  Facebook Google Twitter Vk Yandex Mail.ru

Blitzkid - My Bloody Valentine - таба, видео

Печатать
Просмотров: 144
Blitzkid - My Bloody Valentine

By: skyturnedred@gmail.com

Tuning one-step down: DGCFAD

I tab all Blitzkid songs one-step down,
but you can easily play this in Eb or standard tuning.


. = Palm-mute

INTRO:
|------------------|
|------------------|
|------------------|
|-1010101010101010-| x2
|-1010101010101010-|
|--8-8-8-8-8-8-8-8-|
  ................


VERSE:
|-----------------------------------|
|-----------------------------------|
|-1010101010101010------------------|
|-1010101010101010-1010101010101010-|---|
|--8-8-8-8-8-8-8-8-1010101010101010-|   |
|-------------------8-8-8-8-8-8-8-8-|   |
                                        |--> x2
|---------------------------|           |
|---------------------------|           |
|---------------------------|-----------|
|-88888888-1010101010101010-|
|-88888888-1010101010101010-|
|-66666666--8-8-8-8-8-8-8-8-|


PRE-CHORUS:
|---------------------------|
|---------------------------|
|---------------------------|
|-88888888-1010101010101010-| x2
|-88888888-1010101010101010-|
|-66666666--8-8-8-8-8-8-8-8-|


CHORUS:
|-----------------------------------|
|-----------------------------------|
|-1010101010101010------------------|
|-1010101010101010-1010101010101010-|---|
|--8-8-8-8-8-8-8-8-1010101010101010-|   |
|-------------------8-8-8-8-8-8-8-8-|   |
                                        |--> x2
|---------------------------|           |
|---------------------------|           |
|---------------------------|-----------|
|-88888888-1010101010101010-|
|-88888888-1010101010101010-|
|-66666666--8-8-8-8-8-8-8-8-|


BRIDGE:
|------------------|
|------------------|
|-1010101010101010-| x2
|-1010101010101010-|
|--8-8-8-8-8-8-8-8-|
|------------------|


Repeat VERSE & & PRE-CHORUS & CHORUS
Repeat PRE-CHORUS & CHORUS



Lyrics:

"(verse1)
 I've got a present for you, open it with care
 Go ahead darling take your time
 And as you're wondering I grab your pretty head
 Decapitating you from behind

 (pre-chorus1)
 And as your body's falling lifeless to the floor
 The smile fades from your lips in red

 (chorus)
 My bloody valentine
 Yeah she's all mine
 Ooooh little baby won't you be
 My bloody valentine?
 Yeah one last time
 Ooooh little baby won't you be
 My bloody valentine?

 (verse2)
 Crimson stains are now seeping through your clothes
 Com'on darling just close your eyes
 A stone dead little bitch and now she's growing cold
 I mark this occasion with your life

 Repeat: (pre-chorus1)+(chorus)

 (pre-chorus2)
 Killing you was the perfect crime,
 Do it to me all night on more time,
 
 (chorus)
 (repeat chorus)"
Добавлено: 01.06.2012
Другие материалы по этой песне:
  • Аккорды и текст

Страница создана 01.06.2012
http://primanota.ru/blitzkid/my-bloody-valentine-chords.htm
Привет, Гость.
Предлагаем пройти революционный курс по гитаре.
Подарок от PrimaNota.Ru, забирай!