PrimaNota.ru - самый крупный в мире бесплатный архив песенных текстов, аккордов, табулатур и нот


Blitzkid - Midnight Mile - таба, видео

Регистрация Запомнить меня
Войти через:  Facebook Google Twitter Vk Yandex Mail.ru

Blitzkid - Midnight Mile - таба, видео

Печатать
Просмотров: 134
Midnight Mile by Blitzkid
Standard Tuning EADGBe
Tabbed by "The Muddman" Jovan Sanchez

Such a great song. 
Try not to drop your pick...

Long Live The Horror!!! 

INTRO

|---------------------------------------------|
|---------------------------------------------|
|--8-88888--8-888--6-5--55555-----------------|
|--8-88888--8-888--6-5--55555--6-66666--------|x3
|--6-66666--6-666--4-3--33333--6-66666--------|
|------------------------------4-44444--------|


|---------------------------------------------|
|---------------------------------------------|
|---------------------------------------------|
|--8-88888--8-88888--6-66666--11111111--------|
|--8-88888--8-88888--6-66666--11111111--------|
|--6-66666--6-66666--4-44444---9-9-9-9--------|


VERSE


|---------------------------------------------|
|---------------------------------------------|
|--8-888--5-----------------------------------|x8
|--8-888--5-6---------------------------------|
|--6-666--3-6---------------------------------|
|-----------4---------------------------------|

"I know a place where we can go to get to know each other, it's up that
winding road bathed in moonlight, it's there i'll hold your hand and be
what i can't be in the day, i know it's strange, but somehow midnight 
makes me brave"


CHORUS


|---------------------------------------------|
|---------------------------------------------|
|---------------------------8-88888-----------|
|--10-1010101010---6-66666--8-88888--8-88888--|x2
|--10-1010101010---6-66666--6-66666--8-88888--|
|---8--8-8-8-8-8---4-44444-----------6-66666--|

"I know it can't be bad, the times we had will go on, i'll burn our 
hearts to dust, immortalize our love here on this very spot"


|---------------------------------------------|
|---------------------------------------------|
|--8-888--5-----------------------------------|x12
|--8-888--5-6---------------------------------|
|--6-666--3-6---------------------------------|
|-----------4---------------------------------|

"On this spot... don't daddle counting stars we'll,tranform into
them and, legends will be made of the dust we leave behind, 
imagine how it feels to, trust deep in all your fears,
i'll bleed this kiss goodnight, and meet you on the other side"


|---------------------------------------------|
|---------------------------------------------|
|---------------------------8-88888-----------|
|--10-1010101010---6-66666--8-88888--8-88888--|x2
|--10-1010101010---6-66666--6-66666--8-88888--|
|---8--8-8-8-8-8---4-44444-----------6-66666--|

"I know it can't be bad, the times we had will go on, i'll burn our
hearts into dust, immortalize our love here on this very spot"


|---------------------------------------------|
|---------------------------------------------|
|--8-888--5-----------------------------------|x8
|--8-888--5-6---------------------------------|
|--6-666--3-6---------------------------------|
|-----------4---------------------------------|

"on this spot" x5

BRIDGE


|---------------------------------------------|
|---------------------------------------------|
|--88888888--3333-----------------------------|
|--88888888--3333--6666-----------------------|x4
|--66666666--5555--6666-----------------------|
|------------------4444-----------------------|

"on this spot, on this spot, on this spot, on this spot"

|---------------------------------------------|
|---------------------------------------------|
|--8-8888--5----------------------------------|
|--8-8888--5-6--------------------------------|x8
|--6-6666--3-6--------------------------------|
|------------4--------------------------------|

"Hold me on that midnight mile" x8

OUTRO


|---------------------------------------------|
|---------------------------------------------|
|---------------------------------------------|
|--8----6--6--66\7--8-------------------------|x3
|--8----6--6--66\7--8-------------------------|
|--6----4--4--44\5--6-------------------------|

"Hold me, hold me, hold me, hold me"

|---------------------------------------------|
|---------------------------------------------|
|--------8------------------------------------|
|--6--8--8------------------------------------|
|--6--8--6------------------------------------|
|--4--6---------------------------------------|

"And say goodnight..."

\ = Slide
Добавлено: 27.06.2012
Другие материалы по этой песне:
  • Аккорды и текст

Страница создана 27.06.2012
http://primanota.ru/blitzkid/midnight-mile-chords.htm
Привет, Гость.
Предлагаем пройти революционный курс по гитаре.
Подарок от PrimaNota.Ru, забирай!