PrimaNota.ru - самый крупный в мире бесплатный архив песенных текстов, аккордов, табулатур и нот


Blitzkid - Mary And The Storm - таба, бас-таба, видео

Регистрация Запомнить меня
Войти через:  Facebook Google Twitter Vk Yandex Mail.ru

Blitzkid - Mary And The Storm - таба, бас-таба, видео

Печатать
Просмотров: 326
Blitzkid – "Mary and the Storm"
A great song. Shame no-one's tabbed it yet.
Standard Tuning

Intro (clean)
    C#sus2             C#sus2/G#
e|------------------|------------------|------------------|-------------------|
B|--------4---------|--------4---------|--------6---------|--6h7----6---------|
G|----6-------6---6-|----6-------6---6-|----6-------6---6-|------------6---6--|
D|------6-------6---|------6-------6---|------6-------6---|------4-------4----|
A|--4---------------|------------------|------------------|-------------------|
E|------------------|--4---------------|--6---------------|-------------------|

Intro/Verses Chords (w/distortion)
   C#5   G#5   A#5
e|-----|-----|-----|-----|
B|-----|-----|-----|-----|
G|--6--|-----|-----|-----|
D|--6--|--6--|--8--|--8--|
A|--4--|--6--|--8--|--8--|
E|-----|--4--|--6--|--6--|
"Come, Mary, Come and watch the storm..."

Chorus
e|-----|-----|------------------------|
B|-----|-----|------------------------|
G|--4--|-----|---6--------------------|
D|--4--|--4--|---6--------------------|
A|--2--|--4--|---4---6--8--9---8-8--6-|
E|-----|--2--|------------------------|
"Mother's will is far away..."
Добавлено: 01.05.2012
Другие материалы по этой песне:
  • Аккорды и текст

Страница создана 29.02.2012
http://primanota.ru/blitzkid/mary-and-the-storm-chords.htm
Привет, Гость.
Предлагаем пройти революционный курс по гитаре.
Подарок от PrimaNota.Ru, забирай!