PrimaNota.ru - самый крупный в мире бесплатный архив песенных текстов, аккордов, табулатур и нот


Blitzkid - Invoke Of The Beast - Attack Of The Ghoulies - бас-таба, видео

Регистрация Запомнить меня
Войти через:  Facebook Google Twitter Vk Yandex Mail.ru

Blitzkid - Invoke Of The Beast - Attack Of The Ghoulies - бас-таба, видео

Печатать
Просмотров: 128
tab by Wolfus

intro:

G-------------------------------------------------------------|
D-------------------------------------------------------------|
A-----------------------5--4----------------------------------|
E--0--6--5--2--(4x)--3--------5--(2x)--0--6--5--2--(2x)--0----|

verse:

G----------------------------------------|
D----------------------------------------|
A--5-555555----3-33----------------------| 
E----------2-22------(a lot of times)----|

chorus:

G-------------------------------------------------------------|
D-------------------------------------------------------------|
A--3-333333---------------------------------------------------|
E----------3-333333--(3x then)--00-33-00-33-00-33-00-33 (2x)--|

verse (a lot of times)

chorus (2x)

end = verse (4x)
Добавлено: 10.06.2012
Другие материалы по этой песне:
  • Аккорды и текст

Страница создана 10.06.2012
http://primanota.ru/blitzkid/invoke-of-the-beast-attack-of-the-ghoulies-chords.htm
Привет, Гость.
Предлагаем пройти революционный курс по гитаре.
Подарок от PrimaNota.Ru, забирай!