PrimaNota.ru - самый крупный в мире бесплатный архив песенных текстов, аккордов, табулатур и нот


Blitzkid - Hellraiser - таба, видео

Регистрация Запомнить меня
Войти через:  Facebook Google Twitter Vk Yandex Mail.ru

Blitzkid - Hellraiser - таба, видео

Печатать
Просмотров: 136
Band: Blitzkid
Song: Hellraiser
Tabber: davadholt69@hotmail.com

I noticed theres a guitar pro for this, but its in standard tuning and more awkward to 
so heres my version =)

1/2 step down Tuning

Intro + Verse

E|--------------------------------------------------------|
B|--------------------------------------------------------|
G|--2-222222222222222-------------------5-555555555555555-|
D|--2-222222222222222-3-333333333333333-5-555555555555555-|
A|--0-000000000000000-3-333333333333333-3-333333333333333-|
E|--------------------1-111111111111111-------------------|

E|----------------------|
B|----------------------|
G|----------------------|
D|--5-555555555555555---|
A|--5-555555555555555---|
E|--3-333333333333333---|
      <-----PM----------|


2nd Part of Intro is the same apart from the 1st bit which is

E|--------------------|
B|-------------111000-|
G|--2-222222222222222-|
D|--2-222222222222222-|
A|--0-000000000000000-|
E|--------------------|

the verse is the same but all but the first notes are palm muted =)

 Pre Chorus

E|--------------------------------------|
B|--------------------------------------|
G|--------------------------------------|  X2
D|--3-333333333333333-5-555555555555555-|
A|--3-333333333333333-5-555555555555555-|
E|--1-111111111111111-3-333333333333333-|

Chorus

E|--------------------------------------|
B|--------------------------------------|
G|--5-555555555555555-------------------| X4
D|--5-555555555555555-3-333333-5-555555-|
A|--3-333333333333333-3-333333-5-555555-|
E|--------------------1-111111-3-333333-|

thats the tab really, sorry if its messy... im goin on holiday in a coupla hours =p

Additional

At the end of the intro/Verse the guitar sounds like it does something like this.

E|--------------------|
B|--------------------|
G|--------------------|
D|--5-555555555555555-|
A|--5-555555555555555-|
E|--3-333333330203020-|

something like that anyways, any stuff. email me =)
Добавлено: 09.06.2012
Другие материалы по этой песне:

Страница создана 14.05.2012
http://primanota.ru/blitzkid/hellraiser-chords.htm
Привет, Гость.
Предлагаем пройти революционный курс по гитаре.
Подарок от PrimaNota.Ru, забирай!