PrimaNota.ru - самый крупный в мире бесплатный архив песенных текстов, аккордов, табулатур и нот


Blitzkid - En Infinitus Sleepus Lullaby - таба, видео

Регистрация Запомнить меня
Войти через:  Facebook Google Twitter Vk Yandex Mail.ru

Blitzkid - En Infinitus Sleepus Lullaby - таба, видео

Печатать
Просмотров: 141
Tabbed by: Jesse D.
Email: jesse314159@yahoo.com


Intro 1
Eb|----------------------------------------------------------------|
Bb|----------------------------------------------------------------|
Gb|-----------------------------------------------------------5----|
Db|--7--7-7-7-7-7-7--3--3-3-3-3-3-3-3--2--2-2-2-2-2-2--5--5-5-5-5--|
Ab|--7--7-7-7-7-7-7--3--3-3-3-3-3-3-3--2--2-2-2-2-2-2--5--5-5-3-5--|
Eb|--5--5-5-5-5-5-5--1--1-1-1-1-1-1-1--0--0-0-0-0-0-0--3--3-3---3--|
      * * * * * *     * * * * * * *     * * * * * *     * *

Intro 2
Eb|--------------------------------------------------------------------|
Bb|--------------------------------------------------------------------|
Gb|--------------------------------------------------------------------|
Db|--7--7-7-7-7-7-7--3--3-3-3-3-3-3--2--2-2-2-2-2-2--5--5-5-5-5-5-5-5--|
Ab|--7--7-7-7-7-7-7--3--3-3-3-3-3-3--2--2-2-2-2-2-2--5--5-5-5-5-5-5-5--|
Eb|--5--5-5-5-5-5-5--1--1-1-1-1-1-1--0--0-0-0-0-0-0--3--3-3-3-3-3-3-3--|
      * * * * * *     * * * * * * 

Verse
Eb|------------------------------------------------------------------|
Bb|------------------------------------------------------------------|
Gb|--5--5-5-5-5-5-5-5-5-5-5-5-5-5-5--2--2-2-2-2-2-2-2-2-2-2-2-2-2-2--|
Db|--5--5-5-5-5-5-5-5-5-5-5-5-5-5-5--2--2-2-2-2-2-2-2-2-2-2-2-2-2-2--|
Ab|--3--3-3-3-3-3-3-3-3-3-3-3-3-3-3--0--0-0-0-0-0-0-0-0-0-0-0-0-0-0--|
Eb|------------------------------------------------------------------|
                                                                   
Eb|------------------------------------------------------------------|
Bb|------------------------------------------------------------------|
Gb|------------------5--5-5-5-5-5-5----------------------------------|
Db|--3--3-3-3-3-3-3--5--5-5-5-5-5-5--5--5-5-5-5-5-5-5-5-5-5-5-5-5-5--|
Ab|--3--3-3-3-3-3-3--3--3-3-3-3-3-3--5--5-5-5-5-5-5-5-5-5-5-5-5-5-5--|
Eb|--1--1-1-1-1-1-1------------------3--3-3-3-3-3-3-3-3-3-3-3-3-3-3--|


Pre-chorus 1
Eb|-----------------------------------------------------------------|
Bb|-----------------------------------------------------------------|
Gb|-----------------------------------------------------------------|
Db|--3--3-3-3-3-3-3--5--5-5-5-5-5-5--7--7-7-7-7--5--7--7-7-7-7-7-7--|
Ab|--3--3-3-3-3-3-3--5--5-5-5-5-5-5--7--7-7-7-7--5--7--7-7-7-7-7-7--|
Eb|--1--1-1-1-1-1-1--3--3-3-3-3-3-3--5--5-5-5-5--3--5--5-5-5-5-5-5--|
                                      * * * *        * * * * * *
Pre-chorus 2
Eb|--------------------------------------------------|
Bb|--------------------------------------------------|
Gb|------------------5--5-5-5-5-5-5------------------|
Db|--3--3-3-3-3-3-3--5--5-5-5-5-5-5--5--5-5-5-5-5-5--|
Ab|--3--3-3-3-3-3-3--3--3-3-3-3-3-3--5--5-5-5-5-5-5--|
Eb|--1--1-1-1-1-1-1------------------3--3-3-3-3-3-3--|


Chorus
Eb|------------------------------------------------------------------|
Bb|------------------------------------------------------------------|
Gb|--5--5-5-5-5-5-5--4--4-4-4-4-4-4--2--2-2-2-2-2-2-2-2-2-2-2-2-2-2--|
Db|--5--5-5-5-5-5-5--4--4-4-4-4-4-4--2--2-2-2-2-2-2-2-2-2-2-2-2-2-2--|
Ab|--3--3-3-3-3-3-3--2--2-2-2-2-2-2--0--0-0-0-0-0-0-0-0-0-0-0-0-0-0--|
Eb|------------------------------------------------------------------|

Eb|------------------------------------------------------------------|
Bb|------------------------------------------------------------------|
Gb|------------------5--5-5-5-5-5-5----------------------------------|
Db|--3--3-3-3-3-3-3--5--5-5-5-5-5-5--5--5-5-5-5-5-5-5-5-5-5-5-5-5-5--|
Ab|--3--3-3-3-3-3-3--3--3-3-3-3-3-3--5--5-5-5-5-5-5-5-5-5-5-5-5-5-5--|
Eb|--1--1-1-1-1-1-1------------------3--3-3-3-3-3-3-3-3-3-3-3-3-3-3--|


Outro
Eb|------------------------------------------------------------------|
Bb|------------------------------------------------------------------|
Gb|------------------------------------------------------------------|
Db|--7--7-7-7-7-7-7--3--3-3-3-3-3-3-3--2--2-2-2-2-2-2--5---5---7:----|
Ab|--7--7-7-7-7-7-7--3--3-3-3-3-3-3-3--2--2-2-2-2-2-2--5---5---7:----|
Eb|--5--5-5-5-5-5-5--1--1-1-1-1-1-1-1--0--0-0-0-0-0-0--3---3---5:----|



Intro 1 - 3x
Intro 2 - 1x
Verse - 2x
Pre-chorus 1 - 3x
Pre-chorus 2 - 1x
Chorus - 2x
Verse - 2x
Pre-chorus 1 - 3x
Pre-chorus 2 - 1x
Chorus - 2x
Pre-chorus 1 - 3x
Pre-chorus 2 - 1x
Chorus - 2x
Intro 1 - 3x
Outro - 1x

I know almost every Blitzkid song there is, if you want one tabbed out, just ask.
Добавлено: 10.04.2012
Другие материалы по этой песне:
  • Аккорды и текст

Страница создана 10.04.2012
http://primanota.ru/blitzkid/en-infinitus-sleepus-lullaby-chords.htm
Привет, Гость.
Предлагаем пройти революционный курс по гитаре.
Подарок от PrimaNota.Ru, забирай!