PrimaNota.ru - самый крупный в мире бесплатный архив песенных текстов, аккордов, табулатур и нот


Blitzkid - Dumb Guy In Love - таба, видео

Регистрация Запомнить меня
Войти через:  Facebook Google Twitter Vk Yandex Mail.ru

Blitzkid - Dumb Guy In Love - таба, видео

Печатать
Просмотров: 159
Dumb Guy In Love by Blitzkid
Standard Tuning EADGBe
Tabbed by "The Muddman" Jovan Sanchez

Hey whats up, got another Blitzkid tab here, its a pretty
simple song if your a begginer you shouldnt have any problems
with it. Its very fun to play and i hope you guys/girls enjoy it.
Dont be shy to rate and comment. 
This makes Blitzkid tab #5 for me and i got a few more i want to tab out
so... stay scary

Long Live The Horror!!!

INTRO

|-----------------------------------------------------|
|-----------------------------------------------------|
|-----------------------------------------------------|
|--7-77777--9-99999---12-1212121212121212121212121212-|x6
|--7-77777--9-99999---12-1212121212121212121212121212-|
|--5-55555--7-77777---10-1010101010101010101010101010-|
                         |          14 hits         |

VERSE

|--------------------------------------------|
|--------------------------------------------|
|--------------------------------------------|
|--12-1212121212121212121212121212-----------|
|--12-1212121212121212121212121212-----------|
|--10-1010101010101010101010101010-----------|
      . . . . . . . . . . . . . .                


|--------------------------------------------|
|--------------------------------------------|
|--------------------------------------------|
|--12--1212121212121212121212121212----------|
|--12--1212121212121212121212121212----------|
|--10--1010101010101010101010101010----------|
       . . . . . .                          

|--------------------------------------------|
|--------------------------------------------|
|--------------------9-99999999999999--------|
|--7-77777777777777--9-99999999999999--------|
|--7-77777777777777--7-77777777777777--------|
|--5-55555555555555--------------------------|
     |  14 Hits   |

CHORUS

|--------------------------------------------|
|--------------------------------------------|
|-----------9-99999--7-77777777777777--------|
|--7-77777--9-99999--7-77777777777777--------|x4
|--7-77777--7-77777--5-55555555555555--------|
|--5-55555-----------------------------------|

2ND VERSE

|-----------------------------------------------------|
|-----------------------------------------------------|
|-----------------------------------------------------|
|--7-77777--9-99999---12-1212121212121212121212121212-|x4
|--7-77777--9-99999---12-1212121212121212121212121212-|
|--5-55555--7-77777---10-1010101010101010101010101010-|


|-------------------------------------------|
|-------------------------------------------|
|-------------------------------------------|
|--12-1212121212121212121212121212----------|
|--12-1212121212121212121212121212----------|
|--10-1010101010101010101010101010----------|
      . . . . . . . . . . . . . .                


|-------------------------------------------|
|-------------------------------------------|
|-------------------------------------------|
|--12--1212121212121212121212121212---------|
|--12--1212121212121212121212121212---------|
|--10--1010101010101010101010101010---------|
       . . . . . .                          

|-------------------------------------------|
|-------------------------------------------|
|--------------------9-99999999999999-------|
|--7-77777777777777--9-99999999999999-------|
|--7-77777777777777--7-77777777777777-------|
|--5-55555555555555-------------------------|

2ND CHORUS

|-------------------------------------------|
|-------------------------------------------|
|-----------9-99999--7-77777777777777-------|
|--7-77777--9-99999--7-77777777777777-------|x4
|--7-77777--7-77777--5-55555555555555-------|
|--5-55555----------------------------------|

BRIDGE

|-----------------------------------------------------|
|-----------------------------------------------------|
|-----------------------------------------------------|
|--7-77777--9-99999---12-1212121212121212121212121212-|x2
|--7-77777--9-99999---12-1212121212121212121212121212-|
|--5-55555--7-77777---10-1010101010101010101010101010-|

|-------------------------------------------|
|-------------------------------------------|
|-------------------------------------------|
|--12-1212121212121212121212121212----------|
|--12-1212121212121212121212121212----------|
|--10-1010101010101010101010101010----------|
      . . . . . . . . . . . . . .                


|-------------------------------------------|
|-------------------------------------------|
|-------------------------------------------|
|--12--1212121212121212121212121212---------|
|--12--1212121212121212121212121212---------|
|--10--1010101010101010101010101010---------|
       . . . . . .                    

|-------------------------------------------|
|-------------------------------------------|
|--------------------9-99999999999999-------|
|--7-77777777777777--9-99999999999999-------|
|--7-77777777777777--7-77777777777777-------|
|--5-55555555555555-------------------------|

OUTRO

|-------------------------------------------|
|-------------------------------------------|
|-----------9-99999--7-77777777777777-------|
|--7-77777--9-99999--7-77777777777777-------|x8
|--7-77777--7-77777--5-55555555555555-------|
|--5-55555----------------------------------|


|-------------------------------------------|
|-------------------------------------------|
|-------------------------------------------|
|--7-7--------------------------------------|
|--7-7--------------------------------------|
|--5-5--------------------------------------|


... = Palm Mute
Добавлено: 13.05.2012
Другие материалы по этой песне:
  • Аккорды и текст

Страница создана 13.05.2012
http://primanota.ru/blitzkid/dumb-guy-in-love-chords.htm
Привет, Гость.
Предлагаем пройти революционный курс по гитаре.
Подарок от PrimaNota.Ru, забирай!