PrimaNota.ru - самый крупный в мире бесплатный архив песенных текстов, аккордов, табулатур и нот


Blitzkid - Dead Again - таба, видео

Регистрация Запомнить меня
Войти через:  Facebook Google Twitter Vk Yandex Mail.ru

Blitzkid - Dead Again - таба, видео

Печатать
Просмотров: 208
Уроки эстрадного вокала в Санкт-Петербурге
Blitzkid - Dead Again

By: skyturnedred@gmail.com

Tuning one-step down: DGCFAD

Can also be played in Eb easily.

Pick up and down for the most part of the song.

. = palm-mute


Piano arranged for guitar:
|----------------------------------|
|----------------------------------|
|----------------------------------|
|---88--88--88--88--66--66--66--66-|
|----------------------------------|
|-66--66--66--66--44--44--44--44---|


Intro:  
|---------------------------------------------|
|---------------------------------------------|
|---------------------------------------------|
|---------------------6---------------------6-| x2
|-8-88-88-88-88-88-88-4-6-66-66-66-66-66-66-4-|
|-6-66-66-66-66-66-66---4-44-44-44-44-44-44---|


Verse:
|---------------------------------------------|
|---------------------------------------------|
|---------------------------------------------|
|---------------------6---------------------6-| x3
|-8-88-88-88-88-88-88-4-6-66-66-66-66-66-66-4-|
|-6-66-66-66-66-66-66---4-44-44-44-44-44-44---|
    .. .. .. .. .. ..     .. .. .. .. .. ..

|---------------------------------------|
|---------------------------------------|
|---------------------------------------|
|---------------------6-----------------|
|-8-88-88-88-88-88-88-4-6-666666666666--|
|-6-66-66-66-66-66-66---4-444444444444--|
    .. .. .. .. .. ..


Pre-chorus:
|-----------------------------------------|
|-----------------------------------------|
|-----------------------------------------|
|-----------------------------------------|
|-4444-3333-4444-3333-4444-3333-4444-6666-|
|-2222-1111-2222-1111-2222-1111-2222-4444-|
 "She's not coming back, my friend..."


Chorus1:
|---------------------------------------------|
|---------------------------------------------|
|---------------------------------------------|
|---------------------6---------------------6-| x2
|-8-88-88-88-88-88-88-4-6-66-66-66-66-66-66-4-|
|-6-66-66-66-66-66-66---4-44-44-44-44-44-44---|
 "She's dead again..."


Repeat Verse & Pre-chorus


Chorus2:
|---------------------------------------------|
|---------------------------------------------|
|---------------------------------------------|
|---------------------6---------------------6-|
|-8-88-88-88-88-88-88-4-6-66-66-66-66-66-66-4-|
|-6-66-66-66-66-66-66---4-44-44-44-44-44-44---|

|---------------------------------------------|
|---------------------------------------------|
|---------------------------------------------|
|---------------------6-----------------------| 
|-8-88-88-88-88-88-88-4-6-66-66-66-66-66-66-8-| Last note
|-6-66-66-66-66-66-66---4-44-44-44-44-44-44-6-| changes.


Bridge:
|-------------------------------------------------|
|-------------------------------------------------|
|-------------------------------------------------|
|-------------------------------------------------| x2
|-4-44-44-44-46-66-66-66-68-88-88-88-88-88-88-8-6-|
|-2-22-22-22-24-44-44-44-46-66-66-66-66-66-66-6-4-|
 "If that boy ever thaws again..."

|---------------------------------------------------|
|---------------------------------------------------|
|---------------------------------------------------|
|-------------------------6-66-66-66-66-------------|
|-4-44-44-44-46-66-66-66-64-44-44-44-44-88-88-88-88-|
|-2-22-22-22-24-44-44-44-4--------------66-66-66-66-|

|-------------------------------------------------|
|-------------------------------------------------|
|-------------------------------------------------|
|-------------------------------------------------|
|-44-44-44-44-44-44-44-44-33-33-33-33-33-33-33-33-|
|-22-22-22-22-22-22-22-22-11-11-11-11-11-11-11-11-|


Repeat Chorus1 till end.


---
I will tab out Cold Skin later.
Добавлено: 21.06.2012
Другие материалы по этой песне:
  • Аккорды и текст

Страница создана 21.06.2012
http://primanota.ru/blitzkid/dead-again-chords.htm
Привет, Гость.
Предлагаем пройти революционный курс по гитаре.
Подарок от PrimaNota.Ru, забирай!